Cifra Club

Aprenda

Hope Leaves

Opeth

Tab de baixo: Versão 2
EADG

Come at 1:13
|------------|---------|
|------------|---------|
|-2------2-0-|-0-----2-|
|------------|---------|

Verse 1: 
|-------------------|-------------------|
|-------------------|-------------------|
|-2---r-2--2-0--2-0-|-2---r-2--2-0--2---|X4
|-------------------|-------------------|       
        .  .                .  .

Chorus: 
|-------------------|
|-------------------|
|-2------2--2-2-----|X3 
|-------------------|
         .  .  

Interlude: 
|--------------------------------------|
|*-------------------------------------|
|*-2---/7--4--5--4--5----2--4--5--7--9-|
|---------------------5----------------|

|---------------------------------------|
|--------------------------------------*|
|-2---/7--4--5--4--5----/9--7--5--4--2-*|
|--------------------5------------------|X2

Guitar Break: rest

Verse 2: 
|-------------------|-------------------|
|-------------------|-------------------|
|-2---r-2--2-0--2-0-|-2---r-2--2-0--2---|X3
|-------------------|-------------------|       
        .  .                .  .

|-------------------|------------------|
|-------------------|------------------|
|-2---r-2--2-0--2-0-|-2---r-2--2---5---|X1
|-------------------|------------------|       
        .  .                .  

Chorus: 
Interlude: X4
Composição de Mikael
47 exibições

0 comentários

Ver todos os comentários

Conseguiu tocar?

0 Tocaram 0 Ainda não

Grave um vídeo tocando Hope Leaves e nos envie!

00:00 / 00:00
outros vídeos desta música
repetir qualidade Automático
Outros vídeos desta música
00:00 / 00:00
Automático

Cifra Club Pro

Aproveite o Cifra Club com benefícios exclusivos e sem anúncios
Cifra Club Pro
Aproveite o Cifra Club com benefícios exclusivos e sem anúncios
OK