Masters Apprentices Solo

Opeth

tom: D
Master's apprentice solo
Album : Deliverance
Tabbed by Alvaro Ramirez
* forum user : younguitarist
* forum user : younguitarist
* forum user : younguitarist
* forum user : younguitarist
Please email me for any corrections or comments to *
Tune guitar to (eadgbe)

h - Hammer-on
p - Pull-off
b - Bend
r - bend release
/ - slide up
\ - slide down
~ - vibrato

Time = 4/4

|---------------------------------------|
|---------------------------------------|
|--------------/11---9--11~-12p9--------|
|----7--9--12---------------------------|
|-7-------------------------------------|
|---------------------------------------|

|---------------------------------------|
|---------------------------------------|
|--------------/11---9--11~-12p9--------|
|----7--9--12---------------------------|
|-7-------------------------------------|
|---------------------------------------|

|---------------------------------------|
|---------------------------------------|
|--------------/11---9--11~-12p9--------|
|----7--9--12---------------------------|
|-7-------------------------------------|
|---------------------------------------|

|---------------------------------------|
|---------------------------------------|
|--------------/11---9--11~-12p9--------|
|----7--9--12---------------------------|
|-7-------------------------------------|
|---------------------------------------|

|-/10-10-10-10-10-10-10-10--10-10-10-10-10-10-10-10-10-10-|
|-/12-12-12-12-12-12-12-12-\11-11-11-11-11-11-11-11-11-11-|
|---------------------------------------------------------|
|---------------------------------------------------------|
|---------------------------------------------------------|
|---------------------------------------------------------|

|-----------------------------------7-----------------------------------|
|-7h8p--------------10b-8--------7-----7--------5--7--8--7--8--10~-15b~-|
|------9-7----------------9---9-----------9--7--------------------------|
|----------7------------------------------------------------------------|
|------------7/8~-------------------------------------------------------|
|-----------------------------------------------------------------------|
Página 1 / 1

Letras e título
Acordes e artista

resetar configurações
OK