Gender

Orgy

Composição de: Amir Derakh
tom: Ab
          tabbed by michael  Williams

         drop d tuning
1st guitar

e--------------------------------------------------------------|
b--------------------------------------------------------------|
g--------------------------------------------------------------|
d--------------------------------------------------------------|
a--------------------------------------------------------------|
d--5-5-55------5-55-6---2X----3-3-33----3-33-4---2X------------|

2nd guitar

d--5-5-55-5-5-55-6--2X----3-3-33-3-3-33-4----2X-------
play though the first verse

chorus
e-------------------------------------------|
b-------------------------------------------|
g-------------------------------------------|
d-------------------------------------------|
a-5--6--8---3--4--6---2--3--5---1--2--4-----|
d-5--6--8---3--4--6---2--3--5---1--2--4-----|

2nd verse
d-5-5-55---5-5-56-2X---3-3-33--3-3-3-4

ending
d-5-5-55--10-10-10-9---3-3-33--8-8-87---

d-5-5-55--10-10-1010---3-3-33--8-8-88--

any problems,e-mail me at *
Página 1 / 1

Letras e título
Acordes e artista

resetar configurações
OK