Cifra Club

Oração (cd)

Os Arrais

Cifra: Principal (violão e guitarra)
tom: C
Intro: Riff 1 e Riff 2

Riff 1
     C                       C9          C
E|--3---3---3---3---3---3---3---3---3---3---3---3---|
B|----5---5---5---5---5---5---3---3---3---5---5---5-|
G|--------------------------------------------------|
D|--------------------------------------------------|
A|--3-----------3-----------3-----------3-----------|
E|--------------------------------------------------|

Riff 2
   F7+/9                     F6/9       F7+/9
E|--3---3---3---3---3---3---3---3---3---3---3---3---|
B|----5---5---5---5---5---5---3---3---3---5---5---5-|
G|--------------------------------------------------|
D|--3-----------3-----------3-----------3-----------|
A|--------------------------------------------------|
E|--------------------------------------------------|

C              F7+
.Em oração eu trilho o caminho que Jesus abriu
C            F7+
 Até o Trono onde sua graça flui como um rio
 G    F              G     F
Santo, santo, anjos cantam, santo

C              F7+
   E pela fé caminho até avistar o Autor da minha fé
C                    F7+
   E o que eu posso oferecer para honrar quem Ele é
 G    F              G     F
Santo, santo, anjos cantam, santo
  G                            F
E a partir me viro, "eu sou indigno."
     G                           F9
Mas Sua voz me diz: "não vá meu filho"

(Refrão)
 C             G/C       C      F7+
Torne meu sofrimento em testemunho
   C          G/C    C      F7+
Me esvazie de mim e desse mundo
     Em                          F6
E que o meu nome morra com meu corpo
      G                         F6
E que o de Cristo permaneça em tudo

C                 F7+
  Que eu receba aquilo que preciso e nem um pouco mais
C                   F7+
  Me dê os bens que de imediato eu possa abandonar
 G    F                 G   F
Santo, santo, eu canto Santo, santo

(Refrão)
 C             G/C       C      F7+
Torne meu sofrimento em testemunho
   C          G/C    C      F7+
Me esvazie de mim e desse mundo
     Em                          F6
E que o meu nome morra com meu corpo
      G                         F6
E que o de Cristo permaneça em tudo
   Em     F            G     F
No nome de Cristo, no nome de Cristo

Amém
00:00 / 00:00
Outros vídeos desta música
Repetir
Outros vídeos desta música
Compositor não encontrado.
Colaboração e revisão:
  • cifradelouvor.com AlessandroAndrade
8.736 exibições
    • ½ Tom
    • A
    • Bb
    • B
    • C
    • Db
    • D
    • Eb
    • E
    • F
    • F#
    • G
    • Ab
  • Adicionar à lista

    0 comentários

    Ver todos os comentários

    Entre para oCifra Club PRO

    Tenha acesso a benefícios exclusivos no App e no Site

    • Chega de anúncios

    • Prioridade de compra em lançamentos

    • Mais recursos no app do Afinador

    • Atendimento Prioritário

    • Descontos nos produtos Cifra Club

    • Ajude a produzir mais conteúdo

    00:00 / 00:00

    Cifra Club Pro

    Aproveite o Cifra Club com benefícios exclusivos e sem anúncios
    Cifra Club Pro
    Aproveite o Cifra Club com benefícios exclusivos e sem anúncios
    OK