Cifra Club

Aprenda

Já Que Me Ensinou a Beber

Os Barões da Pisadinha

Cifra: Principal (violão e guitarra)
tom: Em
[Intro] C  D  Bm  Em
        C  D  Bm  Em
E|-------------------10-10---------------------|
B|-12-12-12-12-12-12-------12-12-12-12-12-12-12|
G|---------------------------------------------|
D|---------------------------------------------|
A|---------------------------------------------|
E|---------------------------------------------|

E|-10-10-12-12-10---------------------10-10-12-|
B|----------------10-12-12-12-12-12-12---------|
G|---------------------------------------------|
D|---------------------------------------------|
A|---------------------------------------------|
E|---------------------------------------------|

E|-12-10---------------------------------------|
B|-------10--10----10----10----10-13-13-12-----|
G|--------------12----12----12------------12-9-|
D|---------------------------------------------|
A|---------------------------------------------|
E|---------------------------------------------|

[Primeira Parte]

         C
Eu prometi não mais te procurar
          D
Mas hoje não é meu dia de sorte
           Bm
Achei sua foto no meu celular
             Em
Não te esqueci

Me diz: como é que pode?

         C
Você me tirou do coração

E eu não te tirei da mente
  D
O álcool não apaga
                   
A saudade da gente
  Bm    Em
Amor, amor

[Refrão]

                       C
Já que me ensinou a beber
                        D
Já que me ensinou a sofrer
                  Bm
Me ensina, por favor
                     
Como é que faz 
             Em
Pra te esquecer

                       C
Já que me ensinou a beber
                        D
Já que me ensinou a sofrer
                  Bm
Me ensina, por favor
                     
Como é que faz 
             Em
Pra te esquecer

( C  D  Bm  Em )
( C  D  Bm  Em )

[Primeira Parte]

         C
Eu prometi não mais te procurar
          D
Mas hoje não é meu dia de sorte
           Bm
Achei sua foto no meu celular
             Em
Não te esqueci

Me diz: como é que pode?

         C
Você me tirou do coração

E eu não te tirei da mente
  D
O álcool não apaga
                   
A saudade da gente
  Bm    Em
Amor, amor

[Refrão]

                       C
Já que me ensinou a beber
                        D
Já que me ensinou a sofrer
                  Bm
Me ensina, por favor
                     
Como é que faz 
             Em
Pra te esquecer

                       C
Já que me ensinou a beber
                        D
Já que me ensinou a sofrer
                  Bm
Me ensina, por favor
                     
Como é que faz 
             Em
Pra te esquecer

[Final] C  D  Bm  Em
        C  D  Bm  Em
Compositor não encontrado.
Colaboração e revisão:
  • Gustavo Vaz
  • Carlos Eduardo
  • Glaydson Junior
128.151 exibições
    • ½ Tom
    • Am
    • Bbm
    • Bm
    • Cm
    • C#m
    • Dm
    • Ebm
    • Em
    • Fm
    • F#m
    • Gm
    • G#m
  • Adicionar à lista

    0 comentários

    Ver todos os comentários

    Conseguiu tocar?

    37 Tocaram 10 Ainda não

    Grave um vídeo tocando Já Que Me Ensinou a Beber e nos envie!

    00:00 / 00:00
    Outros vídeos desta música
    Repetir Qualidade Automático
    Outros vídeos desta música
    00:00 / 00:00
    Automático

    Cifra Club Pro

    Aproveite o Cifra Club com benefícios exclusivos e sem anúncios
    Cifra Club Pro
    Aproveite o Cifra Club com benefícios exclusivos e sem anúncios
    OK