Cifra Club

Meia Noite (Ce Tem Meu Whatsapp)

Os Barões da Pisadinha

Cifra: Principal (violão e guitarra)
tom: Dm
[Intro] Dm  F  Am  C  G 

E|------------------------------------------|
B|-----8-10-----8-10-----8-10-----8-10------|
G|-7-7------7-7------7-7------7-7-----------|
D|------------------------------------------|
A|------------------------------------------|
E|------------------------------------------|

E|-----7-8-----7-8-----7-8-----7-8----------|
B|-6-6-----6-6-----6-6-----6-6--------------|
G|------------------------------------------|
D|------------------------------------------|
A|------------------------------------------|
E|------------------------------------------|

E|-------10-12-------10-12-------10-12------|
B|-10-10-------10-10-------10-10------------|
G|------------------------------------------|
D|------------------------------------------|
A|------------------------------------------|
E|------------------------------------------|

E|-------10-12-10~--8-10-7~-----------------|
B|-10-10------------------------------------|
G|------------------------------------------|
D|------------------------------------------|
A|------------------------------------------|
E|------------------------------------------|

[Primeira Parte]

    Dm                         
Cê vai deixar a porta aberta 
                F
Para o nosso encontro
                          Am    
É meia noite eu to aí em ponto
         C                     G
Daquele jeito pra a gente se amar
     Dm                                   
Faz tempo que eu tô te olhando 
          F
E te desejando
                        Am     
E você sabe fica disfarçando 
     C                G
Pro seu marido não notar
    Dm                     
Eu sei você tava carente 
              F
Pois já me falou
                               Am 
Mas na verdade foi eu quem gostou
          C          G 
Quando a gente fez amor

[Refrão]

    Dm 
Cê tem meu whatsapp

Quando der vontade
              F 
Se sentir saudade

Se sentir carente
                Am 
Vai lembrar da gente
     C           G 
Me chama que eu vou

            Dm 
No sofá da sala

Na rede armada
              F 
Dentro do banheiro

Debaixo do chuveiro
        Am 
Ou na sua cama
   C          G 
A gente faz amor

[Solo] Dm  F  Am  C  G 

E|------------------------------------------|
B|-----8-10-----8-10-----8-10-----8-10------|
G|-7-7------7-7------7-7------7-7-----------|
D|------------------------------------------|
A|------------------------------------------|
E|------------------------------------------|

E|-----7-8-----7-8-----7-8-----7-8----------|
B|-6-6-----6-6-----6-6-----6-6--------------|
G|------------------------------------------|
D|------------------------------------------|
A|------------------------------------------|
E|------------------------------------------|

E|-------10-12-------10-12-------10-12------|
B|-10-10-------10-10-------10-10------------|
G|------------------------------------------|
D|------------------------------------------|
A|------------------------------------------|
E|------------------------------------------|

E|-------10-12-10~--8-10-7~-----------------|
B|-10-10------------------------------------|
G|---------------------------7-9-7~---------|
D|------------------------------------------|
A|------------------------------------------|
E|------------------------------------------|

[Primeira Parte]

    Dm                         
Cê vai deixar a porta aberta 
                F
Para o nosso encontro
                          Am    
É meia noite eu to aí em ponto
         C                     G
Daquele jeito pra a gente se amar
     Dm                                   
Faz tempo que eu tô te olhando 
          F
E te desejando
                        Am     
E você sabe fica disfarçando 
     C                G
Pro seu marido não notar
    Dm                     
Eu sei você tava carente 
              F
Pois já me falou
                               Am 
Mas na verdade foi eu quem gostou
          C          G 
Quando a gente fez amor

[Refrão]

    Dm 
Cê tem meu whatsapp

Quando der vontade
              F 
Se sentir saudade

Se sentir carente
                Am 
Vai lembrar da gente
     C           G 
Me chama que eu vou

            Dm 
No sofá da sala

Na rede armada
              F 
Dentro do banheiro

Debaixo do chuveiro
           Am 
Ou na sua cama
   C          G 
A gente faz amor
               
    Dm 
Cê tem meu whatsapp

Quando der vontade
              F 
Se sentir saudade

Se sentir carente
                Am 
Vai lembrar da gente
     C           G 
Me chama que eu vou

            Dm 
No sofá da sala

Na rede armada
              F 
Dentro do banheiro

Debaixo do chuveiro
           Am 
Ou na sua cama
   C          G 
A gente faz amor
               
A gente faz amor

[Final] Dm  F  Am  C  G
        Dm  F  Am  C  G  Dm
 
E|------------------------------------------|
B|-----8-10-----8-10-----8-10-----8-10------|
G|-7-7------7-7------7-7------7-7-----------|
D|------------------------------------------|
A|------------------------------------------|
E|------------------------------------------|

E|-----7-8-----7-8-----7-8-----7-8----------|
B|-6-6-----6-6-----6-6-----6-6--------------|
G|------------------------------------------|
D|------------------------------------------|
A|------------------------------------------|
E|------------------------------------------|

E|-------10-12-------10-12-------10-12------|
B|-10-10-------10-10-------10-10------------|
G|------------------------------------------|
D|------------------------------------------|
A|------------------------------------------|
E|------------------------------------------|

E|-------10-12-10~--8-10-7~-----------------|
B|-10-10------------------------------------|
G|---------------------------7-9-7~---------|
D|------------------------------------------|
A|------------------------------------------|
E|------------------------------------------|
00:00 / 00:00
Outros vídeos desta música
Repetir
Outros vídeos desta música
Composição de Zé Malhada
Colaboração e revisão:
  • Thiago Almeida
40.264 exibições
    • ½ Tom
    • Am
    • Bbm
    • Bm
    • Cm
    • C#m
    • Dm
    • Ebm
    • Em
    • Fm
    • F#m
    • Gm
    • G#m
  • Adicionar à lista

    0 comentários

    Ver todos os comentários

    Conseguiu tocar?

    8 Tocaram 0 Ainda não

    Grave um vídeo tocando Meia Noite (Ce Tem Meu Whatsapp) e nos envie!

    Entre para oCifra Club PRO

    Tenha acesso a benefícios exclusivos no App e no Site

    • Chega de anúncios

    • Prioridade de compra em lançamentos

    • Mais recursos no app do Afinador

    • Atendimento Prioritário

    • Descontos nos produtos Cifra Club

    • Ajude a produzir mais conteúdo

    00:00 / 00:00

    Cifra Club Pro

    Aproveite o Cifra Club com benefícios exclusivos e sem anúncios
    Cifra Club Pro
    Aproveite o Cifra Club com benefícios exclusivos e sem anúncios
    OK