Quero Ver É Me Esquecer (part. Jorge)

Os Barões da Pisadinha

Composição de: AlexTorricelli / Cristian Luz / Gustavo Henrique / Luciano Lima
tom: Fm
[Intro] Fm  Db  Ab  Eb
        Fm  Db  Ab  Eb

[Tab - Solo]

Parte 1 de 2
E|--------------8--------8---------8-6--8-6-----------|
B|-9-8-6--6-9-9----6-6-9-------9-9----------9-8-------|
G|-------------------------8-8------------------------|
D|----------------------------------------------------|
A|----------------------------------------------------|
E|----------------------------------------------------|

Parte 2 de 2
E|----------8--------8---------8-6--8-6---------------|
B|-6--6-9-9----6-6-9-------9-9----------9-8-6---------|
G|---------------------8-8----------------------------|
D|----------------------------------------------------|
A|----------------------------------------------------|
E|----------------------------------------------------|

[Primeira Parte]

 Fm             Db
Notificação na tela
              Ab               Eb
Uma mensagem dela dizendo "acabou"
        Fm                 Db
E tome foto com as amigas dela
                Ab            Eb
Partiu balada, hashtag solteirou

[Pré-Refrão]

    Fm                      Db
Mas essa história eu já conheço
   Ab               Eb
É toda vez o mesmo fim
     Db       Ab/C       Bbm
Ela sai, ela pinta, ela borda
     Ab        Eb
Mas volta pra mim

[Refrão]

  Fm       
Sair, pode sair
    Db
Beijar, pode beijar
   Ab             Eb
Fazer, pode fazer
                     Fm  Db
Quero ver é me esquecer
                     Ab  Eb
Quero ver é me esquecer

  Fm       
Sair, pode sair
    Db
Beijar, pode beijar
   Ab             Eb
Fazer, pode fazer
                     Fm  Db
Quero ver é me esquecer
                     Ab  Eb
Quero ver é me esquecer

[Solo] Fm  Db  Ab  Eb
       Fm  Db  Ab  Eb

[Tab - Solo]

Parte 1 de 2
E|--------------8--------8---------8-6--8-6-----------|
B|-9-8-6--6-9-9----6-6-9-------9-9----------9-8-------|
G|-------------------------8-8------------------------|
D|----------------------------------------------------|
A|----------------------------------------------------|
E|----------------------------------------------------|

Parte 2 de 2
E|----------8--------8---------8-6--8-6---------------|
B|-6--6-9-9----6-6-9-------9-9----------9-8-6---------|
G|---------------------8-8----------------------------|
D|----------------------------------------------------|
A|----------------------------------------------------|
E|----------------------------------------------------|

[Primeira Parte]

 Fm             Db
Notificação na tela
              Ab               Eb
Uma mensagem dela dizendo "acabou"
        Fm                 Db
E tome foto com as amigas dela
                Ab            Eb
Partiu balada, hashtag solteirou

[Pré-Refrão]

    Fm                      Db
Mas essa história eu já conheço
   Ab               Eb
É toda vez o mesmo fim
     Db       Ab/C       Bbm
Ela sai, ela pinta, ela borda
     Ab        Eb
Mas volta pra mim

[Refrão]

  Fm       
Sair, pode sair
    Db
Beijar, pode beijar
   Ab             Eb
Fazer, pode fazer
                     Fm  Db
Quero ver é me esquecer
                     Ab  Eb
Quero ver é me esquecer

  Fm       
Sair, pode sair
    Db
Beijar, pode beijar
   Ab             Eb
Fazer, pode fazer
                     Fm  Db
Quero ver é me esquecer
                     Ab  Eb
Quero ver é me esquecer
                     Fm  Db
Quero ver é me esquecer
                     Ab  Eb
Quero ver é me esquecer

[Final] Fm  Db  Ab  Eb
        Fm  Db  Ab  Eb
        Fm  Db  Ab  Eb
        Fm  Db  Ab  Eb  Fm

[Tab - Solo]

Parte 1 de 4
E|--------------8--------8---------8-6--8-6-----------|
B|-9-8-6--6-9-9----6-6-9-------9-9----------9-8-------|
G|-------------------------8-8------------------------|
D|----------------------------------------------------|
A|----------------------------------------------------|
E|----------------------------------------------------|

Parte 2 de 4
E|----------8--------8---------8-6--8-6---------------|
B|-6--6-9-9----6-6-9-------9-9----------9-8-----------|
G|---------------------8-8----------------------------|
D|----------------------------------------------------|
A|----------------------------------------------------|
E|----------------------------------------------------|

Parte 3 de 4
E|----------8--------8---------8-6--8-6---------------|
B|-6--6-9-9----6-6-9-------9-9----------9-8-----------|
G|---------------------8-8----------------------------|
D|----------------------------------------------------|
A|----------------------------------------------------|
E|----------------------------------------------------|

Parte 4 de 4
E|----------8--------8---------8-6--8-6---------------|
B|-6--6-9-9----6-6-9-------9-9----------9-8-6---------|
G|---------------------8-8----------------------------|
D|----------------------------------------------------|
A|----------------------------------------------------|
E|----------------------------------------------------|
Página 1 / 1

Letras e título
Acordes e artista

resetar configurações
OK