Cifra Club

Tá Rocheda

Os Barões da Pisadinha

Cifra: Principal (violão e guitarra)
tom: F#m
[Intro] F#m  A  E  Bm  
        F#m  A  E  Bm  
 
[Tab - Solo Intro]

Parte 1 de 4
E|----------------9----9-------------------------------|
B|------------------12----9-10-9-10-9------------------|
G|-11-11-11-11-11----------------------11--------------|
D|-----------------------------------------------------|
A|-----------------------------------------------------|
E|-----------------------------------------------------|

Parte 2 de 4
E|----------------9----9-------------------------------|
B|------------------12----9-10-9-10-9------------------|
G|-11-11-11-11-11----------------------9---------------|
D|-----------------------------------------------------|
A|-----------------------------------------------------|
E|-----------------------------------------------------|

Parte 3 de 4
E|-----------------------------------------------------|
B|-----------12-10-12-----9----9-----------------------|
G|-9-9-9-9-9-----------11---11---11--9-----------------|
D|-----------------------------------------------------|
A|-----------------------------------------------------|
E|-----------------------------------------------------|

Parte 4 de 4
E|----------------------------------9------------------|
B|-----------12-10-12-----12----12-----12--------------|
G|-9-9-9-9-9-----------11----11------------------------|
D|-----------------------------------------------------|
A|-----------------------------------------------------|
E|-----------------------------------------------------|

[Primeira Parte]

               F#m
Entrei na rua dela 

Com meu carro rebaixado
              A
No meu porta-mala 

Escutando forró pesado
              E
Eu logo percebi 

Quando ela olhou pra mim
                 Bm
Dei a volta por cima

E chamei ela pra sair

                  F#m
Ela aceitou o convite

A gente foi cair na farra
                  A
Duas garrafas de vinho

Ficou mal intencionada
           E
Foi no banheiro, do nada ela sumiu
                 Bm
Quando fui procurar

Com outro cara ela sumiu

[Refrão]

       F#m  (pausa) A
Tá rocheda, tô nem vendo
       E                   Bm
Pode crê, você merece um prêmio
       F#m          A
Tá rocheda, tô nem vendo
       E                   Bm
Pode crê, você merece um prêmio

                            F#m
Que mulher mais bandida do mundo
                     A             E  Bm
O coração que é vagabundo, vagabundo
                           F#m
De mulher mais bandida do mundo
                     A             E  Bm
O coração que é vagabundo, vagabundo

( F#m  A  E  Bm )
( F#m  A  E  Bm )

[Solo]

Parte 1 de 4
E|----------------9----9-------------------------------|
B|------------------12----9-10-9-10-9------------------|
G|-11-11-11-11-11----------------------11--------------|
D|-----------------------------------------------------|
A|-----------------------------------------------------|
E|-----------------------------------------------------|

Parte 2 de 4
E|----------------9----9-------------------------------|
B|------------------12----9-10-9-10-9------------------|
G|-11-11-11-11-11----------------------9---------------|
D|-----------------------------------------------------|
A|-----------------------------------------------------|
E|-----------------------------------------------------|

Parte 3 de 4
E|-----------------------------------------------------|
B|-----------12-10-12-----9----9-----------------------|
G|-9-9-9-9-9-----------11---11---11--9-----------------|
D|-----------------------------------------------------|
A|-----------------------------------------------------|
E|-----------------------------------------------------|

Parte 4 de 4
E|----------------------------------9------------------|
B|-----------12-10-12-----12----12-----12--------------|
G|-9-9-9-9-9-----------11----11------------------------|
D|-----------------------------------------------------|
A|-----------------------------------------------------|
E|-----------------------------------------------------|

[Primeira Parte]

               F#m
Entrei na rua dela 

Com meu carro rebaixado
              A
No meu porta-mala 

Escutando forró pesado
              E
Eu logo percebi 

Quando ela olhou pra mim
                 Bm
Dei a volta por cima

E chamei ela pra sair

                  F#m
Ela aceitou o convite

A gente foi cair na farra
                  A
Duas garrafas de vinho

Ficou mal intencionada
           E
Foi no banheiro, do nada ela sumiu
                 Bm
Quando fui procurar

Com outro cara ela sumiu

[Refrão]

       F#m (pausa)  A
Tá rocheda, tô nem vendo
       E                   Bm
Pode crê, você merece um prêmio
       F#m          A
Tá rocheda, tô nem vendo
       E                   Bm
Pode crê, você merece um prêmio

                            F#m
Que mulher mais bandida do mundo
                     A             E  Bm
O coração que é vagabundo, vagabundo
                           F#m
De mulher mais bandida do mundo
                     A             E  Bm
O coração que é vagabundo, vagabundo

[Final] F#m  A  E  Bm  
        F#m  A  E  Bm  F#m

Parte 1 de 4
E|----------------9----9-------------------------------|
B|------------------12----9-10-9-10-9------------------|
G|-11-11-11-11-11----------------------11--------------|
D|-----------------------------------------------------|
A|-----------------------------------------------------|
E|-----------------------------------------------------|

Parte 2 de 4
E|----------------9----9-------------------------------|
B|------------------12----9-10-9-10-9------------------|
G|-11-11-11-11-11----------------------9---------------|
D|-----------------------------------------------------|
A|-----------------------------------------------------|
E|-----------------------------------------------------|

Parte 3 de 4
E|-----------------------------------------------------|
B|-----------12-10-12-----9----9-----------------------|
G|-9-9-9-9-9-----------11---11---11--9-----------------|
D|-----------------------------------------------------|
A|-----------------------------------------------------|
E|-----------------------------------------------------|

Parte 4 de 4
E|----------------------------------9------------------|
B|-----------12-10-12-----12----12-----12--------------|
G|-9-9-9-9-9-----------11----11------------------------|
D|-----------------------------------------------------|
A|-----------------------------------------------------|
E|-----------------------------------------------------|

Parte 1 de 4
E|----------------9----9-------------------------------|
B|------------------12----9-10-9-10-9------------------|
G|-11-11-11-11-11----------------------11--------------|
D|-----------------------------------------------------|
A|-----------------------------------------------------|
E|-----------------------------------------------------|

Parte 2 de 4
E|----------------9----9-------------------------------|
B|------------------12----9-10-9-10-9------------------|
G|-11-11-11-11-11----------------------9---------------|
D|-----------------------------------------------------|
A|-----------------------------------------------------|
E|-----------------------------------------------------|

Parte 3 de 4
E|-----------------------------------------------------|
B|-----------12-10-12-----9----9-----------------------|
G|-9-9-9-9-9-----------11---11---11--9-----------------|
D|-----------------------------------------------------|
A|-----------------------------------------------------|
E|-----------------------------------------------------|

Parte 4 de 4 (variação)
E|----------------------------------9-----9------------|
B|-----------12-10-12-----12----12-----12---12-10-9----|
G|-9-9-9-9-9-----------11----11---------------------11-|
D|-----------------------------------------------------|
A|-----------------------------------------------------|
E|-----------------------------------------------------|
00:00 / 00:00
Outros vídeos desta música
Repetir
Outros vídeos desta música
Composição de Felipe Amorim / Jhardell Medeiros / Taciana Gomes
Colaboração e revisão:
  • Caico Antunes
  • Thiago Almeida
226.056 exibições
  • Simplificar cifra
    • ½ Tom
    • Am
    • Bbm
    • Bm
    • Cm
    • C#m
    • Dm
    • Ebm
    • Em
    • Fm
    • F#m
    • Gm
    • G#m
  • Adicionar à lista

    0 comentários

    Ver todos os comentários

    Conseguiu tocar?

    22 Tocaram 1 Ainda não

    Grave um vídeo tocando Tá Rocheda e nos envie!

    00:00 / 00:00
    Capítulos
    • Apresentação
    • Tocando a Música
    • Acordes da Música
    • Tocando Introdução
    • Ensinando Ritmo da Música
    • Dicas da Música
    • Acordes com Capostraste
    • Tocando Refrão da Música
    • Tocando Solos
    • Ensinando Solo da Introdução
    • Tocando Solo Final
    • Ensinando Solo Final
    • Encerramento

    Cifra Club Pro

    Aproveite o Cifra Club com benefícios exclusivos e sem anúncios
    Cifra Club Pro
    Aproveite o Cifra Club com benefícios exclusivos e sem anúncios
    OK