Cifra Club

Aprenda

Rio da Integração

Os 3 do Nordeste

Cifra: Principal (violão e guitarra)
tom: G
Introdução: G G7

E|---------------------|
B|-3-------------------|
G|---5-4-2-------------|
D|---------5-3-2-------|
A|---------------5-3-2-|
E|---------------------|

G                  Bm
Nasceu em Minas Gerais
             A        G
Por cinco estados passou
       Em        Bm
Pernambuco e Alagoas
          A      D
Toda a Bahia banhou
      C         G6
E o povo de Sergipe
        C          G6
Muito tem a agradecer
        C            G6
Pelo muito que tem feito
         A     G
O seu estado crescer

(G Am Em G C G G7)

         Am    Em     G     C       G   
E|------------------------------------------|
B|------------------------------------------|
G|---5-4-2----------------------------------|
D|---------5-4-2----------------------------|
A|----------------5-3-2---------------------|
E|----------------------3-3-5-3-0-3-3--0-3-3|
        C
Paulo Afonso e Pirapora
      D              G6
Itaparica e outras mais
        Bb
São as belas cachoeiras
               C          F
Que o São Francisco nos trás
     G            Bm
O nordeste iluminado
         C           G6
Seu progresso faz nascer
       C             G6
A esperança de um pais
           A          G
Que já é grande por ser

(G Am Em G C G G7)

         Am    Em     G     C       G   
E|------------------------------------------|
B|------------------------------------------|
G|---5-4-2----------------------------------|
D|---------5-4-2----------------------------|
A|----------------5-3-2---------------------|
E|----------------------3-3-5-3-0-3-3--0-3-3|

      G         Bm
Suas águas irrigando
      A             G
Mil terras e plantações
          Em          Bm
Vão nas margens desenhando
      A           D
O progresso da nação
      C          G6
Os vaqueiros navegando
        C           G6
Vão cantando em oração
     C                G6
Provando e sempre louvando
          A      G
O rio da integração

(G Am Em G C G G7)

         Am    Em     G     C       G   
E|------------------------------------------|
B|------------------------------------------|
G|---5-4-2----------------------------------|
D|---------5-4-2----------------------------|
A|----------------5-3-2---------------------|
E|----------------------3-3-5-3-0-3-3--0-3-3|

        C       
São Francisco, São Francisco
        D         G6
Ó meu santo protetor
      Bb       
Leve de nós uma prece
       C           F
Junto ao nosso senhor
      G           Bm
Para que haja fartura
        C              G6    
Pros vaqueiros e lavrador
     C                G
Que vivem do São Francisco
         A       G
O nosso rio salvador

Meio: G Bm A G
      Em Bm A D
      C G6 C G6
      C G6 A G

(G Am Em G C G G7)

         Am    Em     G     C       G   
E|------------------------------------------|
B|------------------------------------------|
G|---5-4-2----------------------------------|
D|---------5-4-2----------------------------|
A|----------------5-3-2---------------------|
E|----------------------3-3-5-3-0-3-3--0-3-3|

 C       
São Francisco, São Francisco
        D         G6
Ó meu santo protetor
      Bb       
Leve de nós uma prece
       C           F
Junto ao nosso senhor
      G           Bm
Para que haja fartura
        C              G6    
Pros vaqueiros e lavrador
     C                G
Que vivem do São Francisco
         A       G
O nosso rio salvador

(G Am Em G C G G7)

         Am    Em     G     C       G   
E|------------------------------------------|
B|------------------------------------------|
G|---5-4-2----------------------------------|
D|---------5-4-2----------------------------|
A|----------------5-3-2---------------------|
E|----------------------3-3-5-3-0-3-3--0-3-3|

Final: G
Composição de Reginaldo Alves / Zanoni Vieira
Colaboração e revisão:
  • João Sousa
1 exibições
    • ½ Tom
    • A
    • Bb
    • B
    • C
    • Db
    • D
    • Eb
    • E
    • F
    • F#
    • G
    • Ab
  • Adicionar à lista

    0 comentários

    Ver todos os comentários

    Conseguiu tocar?

    0 Tocaram 0 Ainda não

    Grave um vídeo tocando Rio da Integração e nos envie!

    00:00 / 00:00
    Outros vídeos desta música
    Repetir Qualidade Automático
    Outros vídeos desta música
    00:00 / 00:00
    Automático

    Cifra Club Pro

    Aproveite o Cifra Club com benefícios exclusivos e sem anúncios
    Cifra Club Pro
    Aproveite o Cifra Club com benefícios exclusivos e sem anúncios
    OK