Cifra Club

Aprenda

Ela Disse Adeus

Os Paralamas do Sucesso

Cifra: Principal (violão e guitarra)
tom: F
Refrão:

1
E|------------------------------------------------------|
B|-10--11--10--10h11--10---10--10h11--10----------------|
G|-10--10--10--10h12--10---10--10h12--10----------------|
D|-10--12-----------------------------------------------|
A|------------------------------------------------------|
E|------------------------------------------------------|

2
E|------------------------------------------------------|
B|-10--11--10\------------------------------------------|
G|-10--10--10\------------------------------------------|
D|-10--12-----------------------------------------------|
A|------------------------------------------------------|
E|------------------------------------------------------|


Dm     Bb     F
  Ela disse adeus
Dm     Bb     F
  Ela disse adeus
Dm  Bb   F  (2x)


Primeira Parte:

1
E|------------------------------------------------------|
B|------------------------------------------------------|
G|------------------------------------------------------|
D|-----3------------------------------------------------|
A|-3-5---5----------------------------------------------|
E|------------------------------------------------------|


F      Gm                 Dm
  Ela disse adeus, e chorou
Já sem nenhum sinal de amor
F        Gm                 C
  Ela se    vestiu, e se olhou
                          B
Sem luxo mais se perfumou
Bb             C
  Lágrimas por    ninguém
        F              Dm
So porque, é triste o fim
Bb                  Gm   C
  Outro amor se acabou

F               Gm               Dm
  Ele quis lhe      pedir pra ficar
De nada ia adiantar
F                Gm           C
  Quis lhe prometer melhorar
                      B
E quem iria acreditar
Bb     C           F           Dm
  Ela não precisa mais de você
Bb                     Gm  C
  Sempre o último a saber

Repete o Refrão:


Dm     Bb     F
  Ela disse adeus
Dm     Bb     F
  Ela disse adeus


Repete a Primeira Parte:

F         Gm         Dm
  Disse adeus, e chorou
Já sem nenhum sinal de amor
F        Gm                 C
  Ela se    vestiu, e se olhou
                          B
Sem luxo mais se perfumou
Bb             C
  Lágrimas por    ninguém
        F              Dm
So porque, é triste o fim
Bb                  Gm   C
  Outro amor se acabou

F               Gm               Dm
  Ele quis lhe      pedir pra ficar
De nada ia adiantar
F                Gm           C
  Quis lhe prometer melhorar
                      B
E quem iria acreditar
Bb     C           F           Dm
  Ela não precisa mais de você
Bb                     Gm  C
  Sempre o último a saber


Repete o Refrão:


Dm     Bb     F
  Ela disse adeus
Dm     Bb     F
  Ela disse adeus

Dm     Bb     F
  Ela disse adeus
Dm     Bb     F
  Ela disse adeus
Composição de Herbert Vianna
Colaboração e revisão:
712.536 exibições
  • Simplificar cifra
    • ½ Tom
    • A
    • Bb
    • B
    • C
    • Db
    • D
    • Eb
    • E
    • F
    • F#
    • G
    • Ab
  • Adicionar à lista

    0 comentários

    Ver todos os comentários

    Conseguiu tocar?

    62 Tocaram 2 Ainda não

    Grave um vídeo tocando Ela Disse Adeus e nos envie!

    00:00 / 00:00
    Outros vídeos desta música
    Repetir Qualidade Automático
    Outros vídeos desta música
    00:00 / 00:00
    Automático
    Capítulos
    • Tocando a Música
    • Dicas Iniciais / Equipamentos
    • Acordes da Música
    • Tab do Refrão - Parte 1 de 2
    • Tab do Refrão - Parte 2 de 2
    • Tab da Primeira Parte
    • Ensinando o Ritmo da Música
    • Encerramento
    • Ficha Técnica

    Cifra Club Pro

    Aproveite o Cifra Club com benefícios exclusivos e sem anúncios
    Cifra Club Pro
    Aproveite o Cifra Club com benefícios exclusivos e sem anúncios
    OK