Cifra Club

Aprenda

Meu Erro

Os Paralamas do Sucesso

Cifra: Guitarra (violão e guitarra)
tom: A
[Intro] A  E  D9
        A  E  D9
        A  E  D9
        A  E  D9  Dm

[Riff Introdução]
   
   A    E        D9
E|-----------0---------------------------------------|
B|-2----0------0----3--2--3------3-2--3-2------------|
G|-2----1-----------2--2--2------2-2--2-2------------|
D|-2----2--------0--0--0--0--0-0-0-0--0-0------------|
A|-0----2--------------------------------------------|
E|------0--------------------------------------------|
   ↓    ↓    ↓ ↑ ↓  ↓  ↓  ↓  ↓ ↑ ↓ ↑  ↑ ↓

   Dm
E|----1--0--1------1-0--1--1-------------------------|
B|----3--3--3------3-3--3--3-------------------------|
G|----2--2--2------2-2--2--2-------------------------|
D|-0-----------0-0-----------------------------------|
A|---------------------------------------------------|
E|---------------------------------------------------|
   ↓  ↓  ↓  ↓  ↓ ↑ ↓ ↑  ↑  ↓ 

[Primeira Parte]

A
  Eu quis dizer
           C#m
Você não quis escutar
  D9
Agora não peça
        Dm
Não me faça promessas

         A
Eu não quero te ver
          C#m
Nem quero acreditar
         D9
Que vai ser diferente
     Dm
Que tudo mudou

[Refrão]

   C#m
Você diz não saber
       F#m
O que houve de errado
        D9
E o meu erro foi crer
       Dm
Que estar ao seu lado

      A  E
Bastaria 
         D9
Ah! Meu Deus
                      A  E
Era tudo o que eu queria
    D9
Eu dizia o seu nome
    Dm
Não    me abandone

[Segunda Parte]

 A
Mesmo querendo
        C#m
Eu não vou me enganar
       D9
Eu conheço os seus passos
    Dm
Eu vejo os seus erros
        A
Não há nada de novo
       C#m
Ainda somos iguais
   D9
Então não me chame
    Dm
Não olhe pra trás

[Refrão]

   C#m
Você diz não saber
       F#m
O que houve de errado
        D9
E o meu erro foi crer
       Dm
Que estar ao seu lado

      A  E
Bastaria 
         D9
Ah! Meu Deus
                      A  E
Era tudo o que eu queria
    D9
Eu dizia o seu nome
    Dm
Não    me abandone jamais

[Interlúdio] A  E  D 
             A  E  D  Dm

 A
Mesmo querendo
        C#m
Eu não vou me enganar
       D9
Eu conheço os seus passos
    Dm
Eu vejo os seus erros
        A
Não há nada de novo
       C#m
Ainda somos iguais
   D9
Então não me chame
    Dm
Não olhe pra trás

[Refrão]

   C#m
Você diz não saber
       F#m
O que houve de errado
        D9
E o meu erro foi crer
       Dm
Que estar ao seu lado

      A  E
Bastaria 
         D9
Ah! Meu Deus
                      A  E
Era tudo o que eu queria
    D9
Eu dizia o seu nome
    Dm                A
Não    me abandone jamais

[Final] A  E  D

E|-----------------------------------------------------|
B|-----------------------------------------------------|
G|-2-----2-2--------2-----2-2--------------------------|
D|---4-2-----4-2------4-2-----4-2-4-4-2-0--------------|
A|-----------------------------------------------------|
E|-----------------------------------------------------|
Composição de Herbert Vianna
1.660.427 exibições
  • Simplificar cifra
    • ½ Tom
    • A
    • Bb
    • B
    • C
    • Db
    • D
    • Eb
    • E
    • F
    • F#
    • G
    • Ab
  • Adicionar à lista

    0 comentários

    Ver todos os comentários
    00:00 / 00:00
    Outros vídeos desta música
    Repetir Qualidade Automático
    Outros vídeos desta música
    00:00 / 00:00
    Automático
    Capítulos
    • Tocando a música
    • Apresentação / Equipamentos
    • Configuração do pedal
    • Acordes da Introdução
    • Tocando Introdução
    • Riff Introdução
    • Acordes Primeira Parte
    • Tocando Primeira Parte
    • Ritmo da música (Reggae)
    • Acordes do Refrão
    • Tocando Refrão
    • Ensinando Refrão
    • Dicas da repetição
    • Tocando final
    • Riff Final
    • Encerramento

    Cifra Club Pro

    Aproveite o Cifra Club com benefícios exclusivos e sem anúncios
    Cifra Club Pro
    Aproveite o Cifra Club com benefícios exclusivos e sem anúncios
    OK