Cifra Club

Meu Erro

Os Paralamas do Sucesso

Tab de baixo: Principal
[Introdução]

G|----------------------------------------------|
D|----------7h9-7-------------------7h9-7-------|
A|-------7--------5--5-4----------7-------------|
E|-5-7-9-----------------7--5-7-9---------------|

G|----------------------------------------------|
D|--------7-------------7h9-7-------------------|
A|-5--7h9---9\--------7-------5--5-4------------|
E|--------------5-7-9----------------7----------|

G|----------------------------------------------|
D|---------7h9-7--------------------------------|
A|-------7-------5-0-5--------------------------|
E|-5-7-9----------------------------------------|


[Primeira parte]

Eu quis dizer...

Parte 1 de 4
G|----------------------------------------------|
D|----------------------------------------------|
A|--------------2-3--4-4-4--4-4-4-4----5-5-5----|
E|-5-5-5--5-5-5---------------------5-----------|

G|----------------------------------------------|
D|----------------------------------------------|
A|-5-5-5-5----5-5-5--5-5-5--4-------------------|
E|---------5------------------7-----------------|

Parte 2 de 4
G|----------------------------------------------|
D|----------------------------------------------|
A|--------------2-3--4-4-4--4-4-4-4----5-5-5----|
E|-5-5-5--5-5-5---------------------5-----------|

G|----------------------------------------------|
D|----------------------------------------------|
A|-5-5-5-5----5-5-5--5-5-5-5----4-4-4--4-4-4----|
E|---------5-----------------5------------------|

Parte 3 de 4
G|----------------------------------------------|
D|-2-3-4----------------------------------------|
A|-------4-------4-5-5-5--5-5-5-5----5-5-5------|
E|---------5-2-5------------------5-------------|

G|----------------------------------------------|
D|----------------------------------------------|
A|-5-5-5--5h7-----------------------------------|
E|----------------------------------------------|

Parte 4 de 4
G|----------------------------------------------|
D|----------7h9-7-------------------7h9-7-------|
A|-------7--------5--5-4----------7-------------|
E|-5-7-9-----------------7--5-7-9---------------|

G|----------------------------------------------|
D|----------------------------------------------|
A|-5--0-5---------------------------------------|
E|----------------------------------------------|


[Segunda parte]

Mesmo querendo, eu não vou me enganar...

Parte 1 de 4
G|----------------------------------------------|
D|----------------------------------------------|
A|--------------2-3--4-4-4--4-4-4-4----5-5-5----|
E|-5-5-5--5-5-5---------------------5-----------|

G|-----------------------------9----------------|
D|----------------------------------------------|
A|-5-5-5-5----5-5-5--5-5-5--7-------------------|
E|---------5------------------------------------|

Parte 2 de 4
G|----------------------------------------------|
D|----------------------------------------------|
A|--------------2-3--4-4-4--4-4-4-4----5-5-5----|
E|-5-5-5--5-5-5---------------------5-----------|

G|----------------------------------------------|
D|---------------------------9\-----------------|
A|-5-5-5-5----5-5-5--5-5-5-7----4-4-4--4-4-4----|
E|---------5------------------------------------|

Parte 3 de 4
G|----------------------------------------------|
D|-2-3-4----------------------------------------|
A|-------4-------4-5-5-5--5-5-5-5----5-5-5------|
E|---------5-2-5------------------5-------------|

G|----------------------------------------------|
D|----------------------------------------------|
A|-5-5-5--5h7-----------------------------------|
E|----------------------------------------------|

Parte 4 de 4
G|----------------------------------------------|
D|----------7h9-7-------------------7h9-7-------|
A|-------7--------5--5-4----------7-------------|
E|-5-7-9-----------------7--5-7-9---------------|

G|--------7-------------------------------------|
D|----------------------------------------------|
A|-5--0-5---5-4---------------------------------|
E|---------------7------------------------------|


[Introdução 2]

G|----------------------------------------------|
D|----------7h9-7-------------------7h9-7-------|
A|-------7--------5--5-4----------7-------------|
E|-5-7-9-----------------7--5-7-9---------------|

G|----------------------------------------------|
D|----------------------------------------------|
A|-5-0-5----------------------------------------|
E|----------------------------------------------|

[Terceira parte]

Mesmo querendo, eu não vou me enganar...

Parte 1 de 4
G|----------------------------------------------|
D|----------------------------------------------|
A|--------------2-3--4-4-4--4-4-4-4----5-5-5----|
E|-5-5-5--5-5-5---------------------5-----------|

G|-----------------------------9----------------|
D|----------------------------------------------|
A|-5-5-5-5----5-5-5--5-5-5--7-------------------|
E|---------5------------------------------------|

Parte 2 de 4
G|----------------------------------------------|
D|----------------------------------------------|
A|--------------2-3--4-4-4--4-4-4-4----5-5-5----|
E|-5-5-5--5-5-5---------------------5-----------|

G|----------------------------------------------|
D|---------------------------9\-----------------|
A|-5-5-5-5----5-5-5--5-5-5-7----4-4-4--4-4-4----|
E|---------5------------------------------------|

Parte 3 de 4
G|----------------------------------------------|
D|-2-3-4----------------------------------------|
A|-------4-------4-5-5-5--5-5-5-5----5-5-5------|
E|---------5-2-5------------------5-------------|

G|----------------------------------------------|
D|----------------------------------------------|
A|-5-5-5--5h7-----------------------------------|
E|----------------------------------------------|

Parte 4 de 4
G|----------------------------------------------|
D|----------7h9-7-------------------7h9-7-------|
A|-------7--------5--5-4----------7-------------|
E|-5-7-9-----------------7--5-7-9---------------|

G|----------------------------------------------|
D|----------------------------------------------|
A|-5--0-5--5-4----------------------------------|
E|-------------7-5------------------------------|


[Introdução 3]

Parte 1 de 3
G|----------------------------------------------|
D|----------7h9-7-------------------7h9-7-------|
A|-------7--------5--5-4----------7-------------|
E|-5-7-9-----------------7--5-7-9---------------|

G|----------------------------------------------|
D|--------7-------------7h9-7-------------------|
A|-5--7h9---9\--------7-------5--5-4------------|
E|--------------5-7-9----------------7----------|

Parte 2 e 3
G|----------------------------------------------|
D|---------7h9-7--------7-----------------------|
A|-------7-------5--7h9---9-7-------------------|
E|-5-7-9----------------------9-----------------|

G|----------------------------------------------|
D|----------7h9-7-------------------7h9-7-------|
A|-------7--------5--5-4----------7-------5-----|
E|-5-7-9-----------------7--5-7-9---------------|

G|----------------------------------------------|
D|-7h9-7----------------------------------------|
A|-------9-7------------------------------------|
E|-----------9\---------------------------------|

Parte 3 de 3
G|----------------------------------------------|
D|----------7h9-7-------------------7h9-7-------|
A|-------7--------5--5-4----------7-------5-----|
E|-5-7-9-----------------7--5-7-9---------------|

G|----------------------------------------------|
D|----------------7h9-7-------------------------|
A|-5-4----------7-------5-5-4-------------------|
E|-----7--5-7-9---------------7--5--------------|
00:00 / 00:00
Outros vídeos desta música
Repetir
Outros vídeos desta música
Composição de Herbert Vianna
Colaboração e revisão:
132.199 exibições

0 comentários

Ver todos os comentários

Conseguiu tocar?

25 Tocaram 0 Ainda não

Grave um vídeo tocando Meu Erro e nos envie!

Entre para oCifra Club PRO

Tenha acesso a benefícios exclusivos no App e no Site

  • Chega de anúncios

  • Prioridade de compra em lançamentos

  • Mais recursos no app do Afinador

  • Atendimento Prioritário

  • Descontos nos produtos Cifra Club

  • Ajude a produzir mais conteúdo

00:00 / 00:00
Capítulos
  • Tocando a música
  • Apresentação / Equipamentos
  • Tab - Introdução
  • Tab - Primeira Parte
  • Dicas Segunda Parte - Intro 2
  • Tab - Segunda Parte
  • Tab - Introdução 2
  • Dicas Terceira Parte - Intro 3
  • Tab - Introdução 3
  • Encerramento

Cifra Club Pro

Aproveite o Cifra Club com benefícios exclusivos e sem anúncios
Cifra Club Pro
Aproveite o Cifra Club com benefícios exclusivos e sem anúncios
OK