Cifra Club

Aprenda

Running On the Spot

Os Paralamas do Sucesso

Tab de baixo: Principal
Tab Feita por: Leandro Rodrigues



   A música é bem simples, é só ouvir e pegar as partes e os tempos....
 

  Intro :

  G:-------------------------------------------------------------------------------------
  D:-------------------------------------------------------------------------------------
  A:-----------/88888888--77777777--66666666---------------------------------------------
  E:--33333333---------------------------------------------------------------------------

  Verso :
  
  G:---------------------------------------------------------------------------------------
  D:------------------------------5--------------------------------------------------------
  A:------------8-8---3-5-2--7-7----7----6-6-6-6-------------------------------------------
  E:--3--33-3------------------------------------------------------------------------------

  Aí tem aquela parte antes do Refrão que o baixo faz assim :

  G:---------------------------------------------------------------------------------------
  D:---------------------------------------------------------------------------------------
  A:------------22222222--33333333----2/-33333333------------------------------------------
  E:--33333333-----------------------------------------------------------------------------

  Refrão :

  G:----------------------------------------------------------------------------------------
  D:----------------------------------------------------------------------------------------
  A:--10-10-10-10-10-10-10-10----10-----88888888--8--777777777--7--66666666----888----------
  E:----------------------------------------------------------------------------------------


  Tem também uma variação na música em que o baixo faz assim:


  G:---------------------------|         
  D:---------------------------|    
  A:---------------------------|   2X .....E depois cai na tablatura abaixo:
  E:--7--7-7----0--0-O--3-5-3--| 


  G:------------------------------------------------------------------------------
  D:------------------------------------------------------------------------------
  A:----10----10----10----10--------12--------------------------------------------
  E:-8-----88----88----88----8--10-----10-10-10-10-10-10-10-10-10-10--------------


_______________________________________________________
Contribuição: Leandro Rodrigues(tonhoband@bol.com.br)
Composição de Paul Weller
1.471 exibições

0 comentários

Ver todos os comentários

Conseguiu tocar?

0 Tocaram 0 Ainda não

Grave um vídeo tocando Running On the Spot e nos envie!

00:00 / 00:00
Outros vídeos desta música
Repetir Qualidade Automático
Outros vídeos desta música
00:00 / 00:00
Automático

Cifra Club Pro

Aproveite o Cifra Club com benefícios exclusivos e sem anúncios
Cifra Club Pro
Aproveite o Cifra Club com benefícios exclusivos e sem anúncios
OK