Cifra Club

Aprenda

B.O.B

OutKast

Cifra: Principal (violão e guitarra)
tom: G
Solo

E---------------------------------------------------------------------
B----------15---------------------15--------19--------~15~------------
G----/16-------16~-----------/16------16--------~16~------------------
D---------------------------------------------------------------------
A---------------------------------------------------------------------
E---------------------------------------------------------------------

E---------------------------------------------------------------------
B----------15--------~19^<20>^<19>^<20>^<19>----15--------------------  
G----/16--------16-----------------------------------16~--------------
D---------------------------------------------------------------------
A---------------------------------------------------------------------
E---------------------------------------------------------------------

E---------------------------------------------------------------------
B---------------------------------------------------------------------
G--------------------------------------------------------------16~----
D----/14~--16~-------14/16---19r16h18~----16-18-16-18-19-18-19--------
A---------------------------------------------------------------------
E---------------------------------------------------------------------

E---------------------------------------------------------------------
B----------------17----17-19~--------19-20-19-15----------------------
G----18-19-18-19----19---------------------------16-18-19-18-16~------
D---------------------------------------------------------------------
A---------------------------------------------------------------------
E---------------------------------------------------------------------

E--------------------------------------------------------------------
B--------10----12^<13>^<12>-----10---12---12^<13>r---12^<13>r--------
G---/11--------------------------------------------------------------
D--------------------------------------------------------------------
A--------------------------------------------------------------------
E--------------------------------------------------------------------

E-------------------12~----------------------------------------------
B---12^<13>^<12>----------12h13r12r10--------------------------------
G---------------------------------------11~---------------------------
D--------------------------------------------------------------------
A--------------------------------------------------------------------
E--------------------------------------------------------------------



*after the solo it's pretty much wah-wah peddle between the fifth and
sixth fret on the G string. Alright, enjoy and i'd like to hear some
feedback since i did this one by ear and it's my first time writing
a tab. Gotta give back to this site since i learned guitar entirely
based on this site and playing by ear.
Composição de André Benjamin / Antwan Patton / David Sheats
2.937 exibições
    • ½ Tom
    • A
    • Bb
    • B
    • C
    • Db
    • D
    • Eb
    • E
    • F
    • F#
    • G
    • Ab
  • Adicionar à lista

    0 comentários

    Ver todos os comentários

    Conseguiu tocar?

    0 Tocaram 0 Ainda não

    Grave um vídeo tocando B.O.B e nos envie!

    00:00 / 00:00
    Outros vídeos desta música
    Repetir Qualidade Automático
    Outros vídeos desta música
    00:00 / 00:00
    Automático

    Cifra Club Pro

    Aproveite o Cifra Club com benefícios exclusivos e sem anúncios
    Cifra Club Pro
    Aproveite o Cifra Club com benefícios exclusivos e sem anúncios
    OK