Cifra Club

Sem Você Não Viverei

Ovelha

Cifra: Principal
exibições 40.088
Tom: A#
Intro: Bb Gm Bb Gm

Solo da Intro:
E|--------------------------------------------------
B|--------------------------------------------------
G|-----3-----------------------3--------------------
D|-3/5---5-3---------3~----3/5---5-3----------------
A|-----------5-3-3h5----------------5-3--3h5-3/1----
E|-----------------------------------------------3--

E|------------------------------------
B|------------------------------------
G|------------------------------------
D|---------------3~--(3h5-3~)---------
A|------3--3h5-5----------------------
E|--3-6-------------------------------

E|------------------------------------
B|------------------------------------
G|------------------------------------
D|-----3----------------------3-5-5~--
A|-3/5---5-3--3h5-3-------3-5---------
E|------------------6-3--6------------

           Bb
Ou, ou, ei, ei
                  Gm7
Sem você não viverei
                  Dm    Cm
Volte logo não suporto,  
         F          Bb
Essa distância de você

            Bb
Ou, ou, ei, ei
                 Gm7
Sem você não viverei
                 Dm    Cm
Todo amor desse mundo
      F            Bb  Bb7
Pra você eu entreguei

                      Eb
Por isso peço que escreva
                Bb
Uma carta por favor
                    C7
Meu coração está pedindo
                 F
Volte logo meu amor

            Bb
Ou, ou, ei, ei
                 Gm7
Sem você não viverei
                  Dm   Cm
Todo amor desse mundo
      F            Bb
Pra você eu entreguei

(Bb Gm7 Dm Cm Bb)
 (Solo Variação)

Bb7                           Eb
     -Por isso peço que escrevas
                Bb
Uma carta por favor
                    C7
Meu coração está pedindo
                 F
Volte logo meu amor

            Bb
Ou, ou, ei, ei
                 Gm7
Sem você não viverei
                 Dm    Cm
Todo amor desse mundo
      F            Bb   Cm
Pra você eu entreguei
        F             Bb   Cm
Só pra você eu entreguei
         F            Bb
Só pra você eu entreguei
   

  
   (Gm7 Bb Gm7 Bb)
Meu amor, volte pra mim...  
Só você eu amarei...



Variação do solo (meio da musica):
E|------------------------------------------------
B|------------------------------------------------
G|-----3--------------------3---------------------
D|-3/5---5-3-------3~---3/5---5-3-----------------
A|-----------5-3-5----------------5-3--3h5-3/1----
E|---------------------------------------------3--

E|------------------
B|------------------
G|------------------
D|---------------3~-
A|------3--3h5-5----
E|--3-6-------------

E|--------------------------------------------6~--
B|---------------------------------------3-6/8----
G|-------------------------------------3----------
D|-----3---------------------------3-5------------
A|---5---3h5-3-----1h3-1---1-----5----------------
E|---------------3-------3------------------------
Acordes para:
    Colaboração e revisão:
    • Jeferson Fernandes
    • Paulo Pereira
    • SoftRock SoftRock

    0 comentários

      mostrar mais comentários

      Conseguiu tocar?

      7tocaram0ainda não

      Grave um vídeo tocando Sem Você Não Viverei e mande pra gente!

      00:00 / 00:00
      outros vídeos desta música
      repetirqualidadeautomática
      Outro vídeos desta música
        00:00 / 00:00
        automática
        OK