Cifra Club

Aprenda

Not All Heroes Wear Capes

Owl City

Cifra: Principal (violão e guitarra)
Tom: D
INTRODUÇÃO 1 
              D       G       G      A         D     G       G      A
E|---------------------0-x-----0-x-----0-x------x--|----0-x-----0-x-----0-x------x--|
B|---------------------3-x-----3-x-----3-x------x--|----3-x-----3-x-----3-x------x--|
G|---------------------2-x-----2-x-----2-x----2-x--|----2-x-----2-x-----2-x----2-x--|
D|--2/4--2p0--------0----x-------x-------x----2-x--|-0----x-------x-------x----2-x--|
A|------------2-0--------x-------x-------x--0---x--|------x-------x-------x--0---x--|
E|-----------------------x--3----x--3----x------x--|------x--3----x--3----x------x--|

INTRODUÇÃO 2

E|---------------------------------------|------------------------------------------|
B|-----5/7--5/3--------5/7--5/3--2-3-2---|-5/7--5/3-----------7h8p7-----------------|
G|-------------4-4/7------------------2--|-----------2-4-4/7--------7-----7/9~---7--|
D|---------------------------------------|----------------------------9-7-----------|
A|---------------------------------------|------------------------------------------|
E|---------------------------------------|------------------------------------------|

INTRODUÇÃO 3 

E|-------------------|
B|-------------------|
G|-------------------|
D|--2/4--2p0---------|
A|------------2-0----|
E|-------------------|

BATIDA USADA PRA TOCAR A MÚSICA TODA

 G1    D       G       G      A         D     G       G      A
E|----0-x-----0-x-----0-x------x--|----0-x-----0-x-----0-x------x--|
B|----3-x-----3-x-----3-x------x--|----3-x-----3-x-----3-x------x--|
G|----2-x-----2-x-----2-x----2-x--|----2-x-----2-x-----2-x----2-x--|
D|-0----x-------x-------x----2-x--|-0----x-------x-------x----2-x--|
A|------x-------x-------x--0---x--|------x-------x-------x--0---x--|
E|------x--3----x--3----x------x--|------x--3----x--3----x------x--|

(Execute as 3 partes da intro e entre com a batida)


D          G             G        A
He doesn't fight crime or wear a cape
D          G            G    A
He doesn't read minds or levitate
D                   G                G              A
But every time my world needs saving, he's my superman
D          G                         G                        A
Some folks don't believe in heroes 'cause they haven't met my dad

D G G A 2X

D             G        G        A
He loves his workshop and rock and roll
D          G          G            A
He's got a hot rod and a heart of gold
D                       G                 G        A
And you could say he's a man of few words, but he talks a lot within
D                    G                G           A
And even though I'm a little taller, I still look up to him

[REFRÃO]

G               A          D/F#      D/B
He built me a house in the arms of a tree
G               A          D/F#            D/B
He taught me to drive, and to fight, and to dream
G               A          D   A/C#  Bm A
When he looks in my eyes I hope he can see
G                A
That my dad's a hero to me

D G G A 2X

D             G        G        A
Rust-ridden fenders, and doors full of dings
D             G        G        A
Somehow he can fix about anything
D                   G              G        A
I didn't think he knew how to cry till our dog died that year
D                    G              G        A
He doesn't always say I love you, but I can hear him loud and clear


[REFRÃO]

G               A          D/F#      D/B
He built me a house in the arms of a tree
G               A          D/F#            D/B
He taught me to drive, and to fight, and to dream
G               A          D   A/C#  Bm A
When he looks in my eyes I hope he can see
G                A
That my dad's a hero to me

[SOLO]
D G G A 4X

[REFRÃO]

G               A          D/F#      D/B
He built me a house in the arms of a tree
G               A          D/F#            D/B
He taught me to drive, and to fight, and to dream
G               A          D   A/C#  Bm A
When he looks in my eyes I hope he can see
G                A
That my dad's a hero to me

[FINAL]

D G A G 4X
My dad's a hero to me
My dad's a hero to me
Composição de Adam Young
Colaboração e revisão:
  • Nathan Barros
348 exibições
    • ½ Tom
    • A
    • Bb
    • B
    • C
    • Db
    • D
    • Eb
    • E
    • F
    • F#
    • G
    • Ab
  • Adicionar à lista

    0 comentários

    Mostrar mais comentários

    Conseguiu tocar?

    0 Tocaram 0 Ainda não

    Grave um vídeo tocando Not All Heroes Wear Capes e mande pra gente!

    00:00 / 00:00
    outros vídeos desta música
    repetir qualidade Automático
    Outros vídeos desta música
    00:00 / 00:00
    Automático

    Cifra Club Pro

    Aproveite o Cifra Club com benefícios exclusivos e sem anúncios
    7 dias grátis
    Cifra Club Pro
    Aproveite o Cifra Club com benefícios exclusivos e sem anúncios
    7 dias grátis
    OK