Cifra Club

The Bird And The Worm

Owl City

Cifra: Principal (violão e guitarra)
Tom: Ab (forma dos acordes no tom de D) Capotraste na 6ª casa
(capo 6ª casa)

(verse 2x)

E |---3-33-2-22-0-00-*-**--3-33-2-22-0-00-*-**--------------------------------|
B |---0-00-0-00-0-00-3-33--0-00-0-00-0-00-3-33--------------------------------|
G |---0-00-0-00-0-00-0-00--0-00-0-00-0-00-0-00--------------------------------|
D |---0----0----0----0-----0----0----0----0-----------------------------------|
A |---2----2----2----2-----2----2----2----2-----------------------------------|
E |---3----3----3----3-----3----3----3----3-----------------------------------|

E |---3-33-2-22-0-00-*-**--3-33-2-22--0-00-0-00-------------------------------|
B |---0-00-0-00-0-00-3-33--0-00-0-00--3-33-3-33-------------------------------|
G |---0-00-0-00-0-00-0-00--0-00-0-00--2-22-2-22-------------------------------|
D |---2----2----2----2-----0----0-----0-00-0-00-------------------------------|
A |---3----3----3----3-----2----2-----0-00-0-00-------------------------------|
E |------------------------3----3-----2-22-2-22-------------------------------|

(chorus)

E |--333333-333333-333333-333333--333333-333333-111111-******----------------|
B |--333333-333333-333333-333333--333333-333333-111111-111111----------------|
G |--000000-222222-000000-000000--000000-222222-222222-000000----------------|
D |--222222-000000-000000-222222--222222-000000-333333-222222----------------|
A |--222222-000000-222222-333333--222222-000000-333333-333333----------------|
E |---------222222-333333----------------222222-111111-----------------------|
    You and I left our troubles far behind...

E |--333333-333333-333333-333333--333333-333333-1--*-------------------------|
B |--333333-333333-333333-333333--333333-333333-1--1-------------------------|
G |--000000-222222-000000-000000--000000-222222-2--0-------------------------|
D |--222222-000000-000000-222222--222222-000000-3--2-------------------------|
A |--222222-000000-222222-333333--222222-000000-3--3-------------------------|
E |---------222222-333333----------------222222-1----------------------------|
    For all my pals who live in the ocean...

(post-chorus)

E |--33-33-33-33---33-33-33-33------------------------------------------------|
B |--33-33-33-33---33-33-33-33------------------------------------------------|
G |--00-22-00-00---00-22-00-00------------------------------------------------|
D |--22-00-00-22---22-00-00-22------------------------------------------------|
A |--22-00-22-33---22-00-22-33------------------------------------------------|
E |-----22-33---------22-33---------------------------------------------------|
    Duh dat duh, dat duttuh...

(verse 2x)
(chorus)

(fast Picking Bridge Thingy 2x)

E |--5--3--5--3--7-5-3--0----0------------------------------------------------|
B |---3--3--3--3------3--3-1--1-3-0-----------------------------------------|
G |----0--0--0--0-0-0--0--0-0--0---0-0----------------------------------------|
D |---------------------------------------------------------------------------|
A |---------------------------------------------------------------------------|
E |---------------------------------------------------------------------------|

(post-chorus 4x)
exibições 3.171
Acordes para:
    Composição: Adam Young / Matthew Thiessen Colaboração e revisão:
    • deborah lumi

    0 comentários

    mostrar mais comentários

    Conseguiu tocar?

    0 tocaram 0 ainda não

    Grave um vídeo tocando The Bird And The Worm e mande pra gente!

    00:00 / 00:00
    outros vídeos desta música
    repetir qualidade Automático
    Outros vídeos desta música
    00:00 / 00:00
    Automático
    OK