Cifra Club

Vinheta Cifra Club TV

Ozielzinho

Cifra: Principal
exibições 126.809
Tom: G
Lick - Parte 1:
E|---------------------------------------------------
B|-8-------------8/10--8-X-X--------X-X--------------
G|-7-9---9~--7-9-7/9---7-X-X--7h9-9-X-X-7/9--7~------
D|---9---9~--7-9---------X-X--7h9-9-X-X-7/9--7~------
A|---------------------------------------------------
E|---------------------------------------------------

Primeira parte - Parte 2:
E|-10------------------------------------------------
B|-10b12r10p8----------------------------------------
G|------------9-7-9~---------------------------------
D|---------------------------------------------------
A|---------------------------------------------------
E|---------------------------------------------------

Parte 3:
E|---------------------------------------------------
B|--------8p7----------------------------------------
G|----7h9-----9p7-9~---------------------------------
D|-/9------------------------------------------------
A|---------------------------------------------------
E|---------------------------------------------------

Última parte - Parte 4:
E|----------------------15h19T20-19p15---------------
B|-------------------17------------------------------
G|----------------16---------------------------------
D|----------14h17------------------------------------
A|-------14------------------------------------------
E|-12h15---------------------------------------------

E|-T19-17p14-------------------------14-17p14--------
B|-----------h15------------------15----------15-----
G|---------------h14-----------14----------------14--
D|-------------------h16p12h16-----------------------
A|---------------------------------------------------
E|---------------------------------------------------

Harmônico Natural:
          HN........
E|-------12---7---5----------------------------------
B|-17~-----------------------------------------------
G|---------------------------------------------------
D|---------------------------------------------------
A|---------------------------------------------------
E|---------------------------------------------------
Acordes para:
    Colaboração e revisão:
    • Adriano Diniz
    • Kaue Muniz

    0 comentários

      mostrar mais comentários

      Conseguiu tocar?

      43tocaram1ainda não

      Grave um vídeo tocando Vinheta Cifra Club TV e mande pra gente!

      00:00 / 00:00
      outros vídeos desta música
      repetirqualidadeautomática
      Outro vídeos desta música
        00:00 / 00:00
        automática
        Capítulos
        • Início
        • Tocando a vinheta
        • Primeiro lick (Escala pentatônica de E menor)
        • Ensinando primeiro lick
        • Primeira parte
        • Ensinando primeira parte
        • Última parte (arpejos e tapping)
        • Ensinando última parte
        • Acordes da base
        • Encerramento
        OK