Cifra Club

Aprenda

Bark at the Moon

Ozzy Osbourne

Cifra: Principal (violão e guitarra)
tom: D
Introe Primeira Parte:

Riff Principal:
   G5 A5
E|-----------------------------------------
B|-8--10---------10---------10-------------
G|-7--9----------9----------9--------------
D|-5--7----------7----------7--------------
A|-------0-0-0-0----0-0-0-0----0-0-0-0-----
E|-----------------------------------------
         P.M.. .    P.M.. .    P.M.. .

   A7
E|-----------------------------------------
B|-8---------8-----------------------------
G|-9---------9-----------------------------
D|-7---------7-----------------------------
A|---0-0-0-0---0-0--3p0---0----------------
E|----------------------3------------------
     P.M.. .   P.M.

   G5/A
E|-----------------------------------------
B|-8---------8---------8-------------------
G|-7---------7---------7-------------------
D|-5---------5---------5-------------------
A|---0-0-0-0---0-0-0-0---0-0-0-0-----------
E|-----------------------------------------
     P.M.. .    P.M.. .    P.M.. .

   F5/A  F5-/A G7/A
E|-----------------------------------------
B|-6-----6-----6---------------------------
G|-5-----4-----4---------------------------
D|-3-----3-----5---------------------------
A|---0-0---0-0---0-0-----------------------
E|-----------------------------------------
     P.M.  P.M.  P.M.

(Variação)
   G5 A5
E|-----------------------------------------
B|-8--10---------10---------10-------------
G|-7--9----------9----------9--------------
D|-5--7----------7----------7--------------
A|-------0-0-0-0----0-0-0-0----0-0-0-0-----
E|-----------------------------------------
         P.M.. .    P.M.. .    P.M.. .

   A7
E|-----------------------------------------
B|-8---------8-----------------------------
G|-9---------9-----------------------------
D|-7---------7-----------------------------
A|---0-0-0-0---0-0--5p0---0----------------
E|----------------------5------------------
     P.M.. .   P.M.

   G5/A
E|-----------------------------------------
B|-8---------8---------8-------------------
G|-7---------7---------7-------------------
D|-5---------5---------5-------------------
A|---0-0-0-0---0-0-0-0---0-0---------------
E|-----------------------------------------
     P.M.. .   P.M.. .   P.M.

E|-----------------------------------------
B|-----------------------------------------
G|-----------------------------------------
D|-----------------------------------------
A|-1-0-1-3-1-0-----------------------------
E|-------------3-1-------------------------

(Variação)
E|-----------------------------------------
B|-----------------------------------------
G|-----------------------------------------
D|-----------------------------------------
A|-1-0-1-3-1-0-----------------------------
E|-------------0-1-------------------------

Segunda Parte:
   F#m          D5/A         E5
E|-----------------------------------------
B|-2------------3------------5-------------
G|-2------------2------------4-------------
D|-4------------0------------2-------------
A|-4------------0------------2-------------
E|-2-------------------------0-------------

E|---------------------------------------------------
B|---------------------------------------------------
G|---------------------------------------------------
D|---------------------------------------------------
A|------4-4-------2-2-------5-5-------4-4------------
E|-2-2-------2-2-------2-2-------2-2-------2-2-------
   P.M. . .  . .  . .  . .  . .  . .  . .  . .

E|---------------------------------------------------
B|---------------------------------------------------
G|---------------------------------------------------
D|---------------------------------------------------
A|------5-5-------4-4-------2-2-------4-4------------
E|-2-2-------2-2-------2-2-------2-2-------2-2-------
   P.M. . .  . .  . .  . .  . .  . .  . .  . .

E|---------------------------------------------------
B|---------------------------------------------------
G|---------------------------------------------------
D|--------------------------2-2----------------------
A|------5-5-------4-4-----------------5-5------------
E|-2-2-------2-2-------2-2-------2-2-------2-2-------
   P.M. . .  . .  . .  . .  . .  . .  . .  . .

   F#m          D5/A         E5
E|-----------------------------------------
B|-2------------3------------5-------------
G|-2------------2------------4-------------
D|-4------------0------------2-------------
A|-4------------0------------2-------------
E|-2-------------------------0-------------

Refrão:

   A5
E|-----------------------------------------
B|-----------------------------------------
G|---------5h7x--4------4-4-----5/7\5-4----
D|-7-------5h7x--5--5-5-----5-5---------5--
A|-7-7-7------------------------3/5\3-2----
E|-5-5-5--------------------------------3--
     P.M.           . . . . . .

                             E5      G5
E|-----------------------------------------
B|---------------------------5-------------
G|-4\2---2~-2-2-2----2/4-x---4-------------
D|-5\3---3~-3-3-3----3/5-x---2-------------
A|---------------------------2-------5-----
E|---------------------------0-------3-----
            P.M..

   A5
E|-----------------------------------------
B|-----------------------------------------
G|------------5h7-x--4---------------------
D|-7----------5h7-x--5---------------------
A|-7-7-7-7---------------------------------
E|-5-5-5-5---------------------------------
     P.M..

E|-----------------------------------------
B|-----------------------------------------
G|-------4-4-------7-7--5-5--4-4-----------
D|--5-5-------5-5-----------------5-5------
A|-----------------------------------------
E|-----------------------------------------
    P.M. . .  . .  . .  . .  . .  . .

(Variação no Refrão Final)

E|-----------------------------------------
B|-----------------------------------------
G|-------4-4-------9-9--7-7--5-5-----------
D|--5-5-------5-5-----------------5-5------
A|-----------------------------------------
E|-----------------------------------------
    P.M. . .  . .  . .  . .  . .  . .

                          E5
E|-----------------------------------------
B|---------------------------5-------------
G|-4\2---2~-2-2-2----2/4-----4-------------
D|-5\3---3~-3-3-3----3/5--2--2-------------
A|------------------------2--2-------------
E|------------------------0--0-------------
            P.M..

Ponte para o Solo:

                                       G
E|-------------------------------------3---
B|-------------------------------------3---
G|-------------------------------------0---
D|-------------------------------------0---
A|-------3---2~---3-------3---2~-3-----2---
E|-0h1-1---1--------0h1-1---1----------3---
             A.H.
(3x)

          F5 E5 D5 C5 Bb5           C5
E|----------------------------------------
B|-----------------------1h3---1h3--------
G|--------------------3-3-----3-----5-----
D|--------10-9--7--5--3-------------5-----
A|-2-3----8--7--5--3--1-------------3-----
E|-0-1------------------------------------

Solo:

E|---------------------------------------------------
B|-/13~--13b15~---15r-13-10--------------------------
G|----------------------------12b14r12-10-12--10~----
D|---------------------------------------------------
A|---------------------------------------------------
E|---------------------------------------------------
                                              A.H.
E|---------------------------------------------------
B|---------------------------------------------------
G|-9-10-9--10p9----9---------------------------------
D|--------------12---12--10/12~----------------------
A|---------------------------------------------------
E|---------------------------------------------------

E|---------------------------------------------------
B|---------------------------------------------------
G|--------------------------10-12--12b14r12--10-12~--
D|-------10----12-----10-12--------------------------
A|-10-12----12----12---------------------------------
E|---------------------------------------------------
   P.M..    .     .
E|------15b17~--15-13-12h13p12----12-----------------
B|-/13-------------------------15----13-13/15~-------
G|---------------------------------------------------
D|---------------------------------------------------
A|---------------------------------------------------
E|---------------------------------------------------

E|-------17p13---------------------------------------
B|-13-15-------15------------------------------------
G|---------------------------------------------------
D|---------------------------------------------------
A|---------------------------------------------------
E|---------------------------------------------------

E|----------13-17p13-15p13----13---------------------
B|----13-15----------------17----17-13-15-17---------
G|---------------------------------------------------
D|---------------------------------------------------
A|---------------------------------------------------
E|---------------------------------------------------

E|---------------------------------------------------
B|-----13-15-15b18r15p13--15~------------------------
G|--14-----------------------------------------------
D|---------------------------------------------------
A|---------------------------------------------------
E|---------------------------------------------------
                          A.H
E|-------10----------------10------------------------
B|-13b15----13p10-------------13p10------------------
G|----------------12b14-14---------------------------
D|---------------------------------------------------
A|---------------------------------------------------
E|---------------------------------------------------

E|---------------------------------------------------
B|---------------------------------------------------
G|-12-12b14r12-10----12-10~--------------------------
D|----------------12---------12-10-12-10-------------
A|---------------------------------------------------
E|---------------------------------------------------
                      A.H
E|---------------------------------------------------
B|------------------------10~----10~-----------------
G|------------------------10~----10~-----------------
D|-8~-7~-5~-10~-8~-10~-12~----12---------------------
A|---------------------------------------------------
E|---------------------------------------------------

E|---------------------------------------------------
B|-13-----------13--10~------------------------------
G|-12b14r12p10--12--10~------------------------------
D|----------------------12-10-12~--------------------
A|---------------------------------------------------
E|---------------------------------------------------

E|---------------------------------------------------
B|---------------------------------------------------
G|---------------------------------------------------
D|-----------------------------7----7-8-10-----------
A|---------5---5-7-8----7-8-10---10------------------
E|-6-5-6-8---8---------------------------------------

E|---------------------------------------------------
B|---------------------------------------------------
G|---------9----9-10-10/12~--------------------------
D|-8-10-12---12--------------------------------------
A|---------------------------------------------------
E|---------------------------------------------------

E|---------------------------------------------------
B|---------------------------------------------------
G|---------------------------------------------------
D|--------------------------------8----8-10-12-------
A|----------7----7-8-10---8-10-12---12---------------
E|-8-6-8-10---10-------------------------------------

E|---------------------------------------------------
B|---------------------------------------------------
G|----------10----10-12-12/14~-----------------------
D|-10-12-14----12------------------------------------
A|---------------------------------------------------
E|---------------------------------------------------

E|---------------------------------------------------
B|---------------------------------------------------
G|---------------------------------------------------
D|-----------------------------------10----10-12-14--
A|------------8----8-10-12--10-12-13----13-----------
E|-10-8-10-12---12-----------------------------------

E|------------------------------------12-------------
B|-------------------11----11-13-15------------------
G|-------10-12-10-12----14---------------------------
D|-12-14---------------------------------------------
A|---------------------------------------------------
E|---------------------------------------------------

E|-------13-12-10----------------10-12-13------------
B|----------------13-11-10-11-13---------------------
G|---------------------------------------------------
D|---------------------------------------------------
A|---------------------------------------------------
E|---------------------------------------------------

E|----13/15-13-12----------------12-13-15------------
B|----------------15-13-11-13-15---------------------
G|---------------------------------------------------
D|---------------------------------------------------
A|---------------------------------------------------
E|---------------------------------------------------

E|-----15/17-15-13----------------13-15-17-----------
B|-----------------17-15-13-15-17--------------------
G|---------------------------------------------------
D|---------------------------------------------------
A|---------------------------------------------------
E|---------------------------------------------------

E|----17/18-17-15----------------15-17~-17~-17~-17~--
B|----------------18-17-15-17-18---------------------
G|---------------------------------------------------
D|---------------------------------------------------
A|---------------------------------------------------
E|---------------------------------------------------

Solo Final:

E|---------------------------------------------------
B|-13p12----12-13p12-13p12----12-13p12-13p12----12---
G|-------14----------------14----------------14------
D|---------------------------------------------------
A|---------------------------------------------------
E|---------------------------------------------------

E|---------------------------------------------------
B|-15p12----12-15p12-15p12----12-15p12-15p12----12---
G|-------12----------------12----------------12------
D|---------------------------------------------------
A|---------------------------------------------------
E|---------------------------------------------------

E|---------------------------------------------------
B|-17p13----13-17p13-17p13----13-17p13-17p13----13---
G|---------------------------------------------------
D|-------15----------------15----------------15------
A|---------------------------------------------------
E|---------------------------------------------------

E|---------------------------------------------------
B|-15p12----12-15p12-15p12----12-15p12-15p12----12---
G|---------------------------------------------------
D|-------14----------------14----------------14------
A|---------------------------------------------------
E|---------------------------------------------------

E|---------------------------------------------------
B|-18-17-15-17-15------------------------------------
G|----------------17-16-14--16h1716-14-16p14---------
D|-------------------------------------------17-14---
A|---------------------------------------------------
E|---------------------------------------------------

E|---------------------------------------------------
B|-18-17-15-17-15------------------------------------
G|----------------17-16-14-16h1716-14-16p14-------14-
D|------------------------------------------17-14----
A|---------------------------------------------------
E|---------------------------------------------------
Composição de Ozzy Osbourne
Colaboração e revisão:
  • Gustavo Cunha
190.808 exibições
    • ½ Tom
    • A
    • Bb
    • B
    • C
    • Db
    • D
    • Eb
    • E
    • F
    • F#
    • G
    • Ab
  • Adicionar à lista

    0 comentários

    Ver todos os comentários

    Conseguiu tocar?

    27 Tocaram 1 Ainda não

    Grave um vídeo tocando Bark at the Moon e nos envie!

    00:00 / 00:00
    outros vídeos desta música
    repetir qualidade Automático
    Outros vídeos desta música
    00:00 / 00:00
    Automático
    Capítulos
    • Início
    • Tocando a música
    • Acordes da Introdução e Primeira Parte
    • Tocando Introdução e Primeira Parte
    • Ensinando Riff Principal
    • Acordes da Segunda Parte
    • Tocando Segunda Parte
    • Ensinando Segunda Parte
    • Acordes do Refrão
    • Tocando Refrão
    • Ensinando Refrão
    • Acordes da Ponte
    • Tocando Refrão e Ponte
    • Ensinando Ponte
    • Tocando Solo
    • Ensinando Solo (Primeira Parte)
    • Ensinando Solo (Segunda Parte)
    • Ensinando Solo (Terceira Parte)
    • Ensinando Solo (Quarta Parte)
    • Tocando Solo Final
    • Ensinando Solo Final
    • Encerramento

    Cifra Club Pro

    Aproveite o Cifra Club com benefícios exclusivos e sem anúncios
    Cifra Club Pro
    Aproveite o Cifra Club com benefícios exclusivos e sem anúncios
    OK