Cifra Club

Close My Eyes Forever

Ozzy Osbourne

Cifra: Principal (violão e guitarra)
tom: C
Guitar 1
                                                         
E||------------------|----------0---------------0-------|
B||------------------|------1-------1-------1-------1---|
G||------------------|----2---2---2---2---2---2---2-----|
D||------------------|----------------------------------|
A||------------------|--0---------------0-------------0-|
E||------------------|----------------------------------|


                                                                      
----------------------------------|--------------------------0-------|
------0---3---0-------0---3---0---|----------1-----------------1-0-1-|
----0---0---0---0---0---0---0-----|------2-------2-------2-----------|
----------------------------------|----3---3---3---3---3---3---------|
----------------------------------|----------------------------------|
--3---------------3-------------3-|--1---------------1---------------|


                                                                    
----------0------------0--------|----------0---------------0-------|
------1-------1------1-----3----|------1-------1-------1-------1---|
----2---2---2---2--2-----0---0--|----2---2---2---2---2---2---2-----|
--------------------------------|----------------------------------|
--0-----------------------------|--0---------------0-------------0-|
--------------------------------|----------------------------------|


                                                                      
----------------------------------|--------------------------0-------|
------0---3---0-------0---3---0---|----------1-----------------1-0-1-|
----0---0---0---0---0---0---0-----|------2-------2-------2-----------|
----------------------------------|----3---3---3---3---3---3---------|
----------------------------------|----------------------------------|
--3---------------3-------------3-|--1---------------1---------------|


                                                                    
----------0------------0--------|----------0---------------0-------|
------1-------1------1-----3----|------1-------1-------1-------1---|
----2---2---2---2--2-----0---0--|----2---2---2---2---2---2---2-----|
--------------------------------|----------------------------------|
--0-----------------------------|--0---------------0-------------0-|
--------------------------------|----------------------------------|


                                                                      
----------------------------------|--------------------------0-------|
------0---3---0-------0---3---0---|----------1-----------------1-0-1-|
----0---0---0---0---0---0---0-----|------2-------2-------2-----------|
----------------------------------|----3---3---3---3---3---3---------|
----------------------------------|----------------------------------|
--3---------------3-------------3-|--1---------------1---------------|


                                                                  
----------0------------0-----0--|--------------------------------|
------1-------1------1---0-1----|---------0--------------0-------|
----2---2---2---2--2------------|-------2---2---2------2---2---2-|
--------------------------------|-----3-------3------3-------3---|
--0-----------------------------|--------------------------------|
--------------------------------|--1--------------1--------------|


                                                                  
---------0--------------0-------|--------------------------------|
-------1---1---1-3----1---1-0-1-|---------0--------------0-------|
-----2-------2------2-5-----2---|-------2---2---2------2---2---2-|
--------------------------------|-----3-------3------3-------3---|
--0--------------0--------------|--------------------------------|
--------------------------------|--1--------------1--------------|


                                                                  
---------0--------------0-------|--------------------------------|
-------1---1---1-3----1---1-0-1-|---------0--------------0-------|
-----2-------2------2-5-----2---|-------2---2---2------2---2---2-|
--------------------------------|-----3-------3------3-------3---|
--0--------------0--------------|--------------------------------|
--------------------------------|--1--------------1--------------|


                                                                  
---------0--------------0-------|--------------------------------|
-------1---1---1-3----1---1-0-1-|---------0--------------0-------|
-----2-------2------2-5-----2---|-------2---2---2------2---2---2-|
--------------------------------|-----3-------3------3-------3---|
--0--------------0--------------|--------------------------------|
--------------------------------|--1--------------1--------------|


                                                                   
----------------------------------|-------------------------------|
------0---3---0-------0---3---0---|------0---3---0-------0---3----|
----0---0---0---0---0---0---0---0-|----0---0---0---0---0---0------|
----------------------------------|-------------------------------|
----------------------------------|-------------------------------|
--3---------------3---------------|--3---------------3------------|


                                                                      
----------0---------------0-------|----------------------------------|
------1-------1-------1-------1---|------0---3---0-------0---3---0---|
----2---2---2---2---2---2---2-----|----0---0---0---0---0---0---0-----|
----------------------------------|----------------------------------|
--0---------------0-------------0-|----------------------------------|
----------------------------------|--3---------------3-------------3-|


                                                                    
--------------------------0-------|----------0------------0--------|
----------1-----------------1-0-1-|------1-------1------1-----3----|
------2-------2-------2-----------|----2---2---2---2--2-----0---0--|
----3---3---3---3---3---3---------|--------------------------------|
----------------------------------|--0-----------------------------|
--1---------------1---------------|--------------------------------|


                                                                      
----------0---------------0-------|----------------------------------|
------1-------1-------1-------1---|------0---3---0-------0---3---0---|
----2---2---2---2---2---2---2-----|----0---0---0---0---0---0---0-----|
----------------------------------|----------------------------------|
--0---------------0-------------0-|----------------------------------|
----------------------------------|--3---------------3-------------3-|


                                                                    
--------------------------0-------|----------0------------0-----0--|
----------1-----------------1-0-1-|------1-------1------1---0-1----|
------2-------2-------2-----------|----2---2---2---2--2------------|
----3---3---3---3---3---3---------|--------------------------------|
----------------------------------|--0-----------------------------|
--1---------------1---------------|--------------------------------|


                                                                  
--------------------------------|---------0--------------0-------|
---------0--------------0-------|-------1---1---1-3----1---1-0-1-|
-------2---2---2------2---2---2-|-----2-------2------2-5-----2---|
-----3-------3------3-------3---|--------------------------------|
--------------------------------|--0--------------0--------------|
--1--------------1--------------|--------------------------------|


                                                                  
--------------------------------|---------0--------------0-------|
---------0--------------0-------|-------1---1---1-3----1---1-0-1-|
-------2---2---2------2---2---2-|-----2-------2------2-5-----2---|
-----3-------3------3-------3---|--------------------------------|
--------------------------------|--0--------------0--------------|
--1--------------1--------------|--------------------------------|


                                                                  
--------------------------------|---------0--------------0-------|
---------0--------------0-------|-------1---1---1-3----1---1-0-1-|
-------2---2---2------2---2---2-|-----2-------2------2-5-----2---|
-----3-------3------3-------3---|--------------------------------|
--------------------------------|--0--------------0--------------|
--1--------------1--------------|--------------------------------|


                                                                    
--------------------------------|----------------------------------|
---------0--------------0-------|------0---3---0-------0---3---0---|
-------2---2---2------2---2---2-|----0---0---0---0---0---0---0---0-|
-----3-------3------3-------3---|----------------------------------|
--------------------------------|----------------------------------|
--1--------------1--------------|--3---------------3---------------|


                                                                        
-------------------------------|-------------------|-------------------|
------0---3---0-------0---3----|-------------------|-------------------|
----0---0---0---0---0---0------|-------------------|-------------------|
-------------------------------|--3----------------|--0----------------|
-------------------------------|--1----------------|-------------------|
--0---------------0------------|-------------------|--3----------------|


                                                                                
-------------------|-------------------|-------------------|-------------------|
-------------------|-------------------|-------------------|-------------------|
-------------------|--0----------------|-------------------|-------------------|
-------------------|-------------------|--3----------------|--0----------------|
--0----------------|--3----------------|--1----------------|-------------------|
-------------------|-------------------|-------------------|--3----------------|


                                                                                
-------------------|-------------------|-------------------|-------------------|
-------------------|-------------------|-------------------|-------------------|
-------------------|--0----------------|-------------------|-------------------|
-------------------|-------------------|--3----------------|--0----------------|
--0----------------|--3----------------|--1----------------|-------------------|
-------------------|-------------------|-------------------|--3----------------|


                                                                                
-------------------|-------------------|-------------------|-------------------|
-------------------|-------------------|-------------------|-------------------|
-------------------|--0----------------|-------------------|-------------------|
-------------------|-------------------|--3----------------|--0----------------|
--0----------------|--3----------------|--1----------------|-------------------|
-------------------|-------------------|-------------------|--3----------------|


                                                                           
-------------------|-------------------|----------0---------------0-------|
-------------------|-------------------|------1-------1-------1-------1---|
-------------------|-------------------|----2---2---2---2---2---2---2-----|
-------------------|--2----------------|----------------------------------|
--0----------------|--0----------------|--0---------------0-------------0-|
-------------------|-------------------|----------------------------------|


                                                                      
----------------------------------|--------------------------0-------|
------0---3---0-------0---3---0---|----------1-----------------1-0-1-|
----0---0---0---0---0---0---0-----|------2-------2-------2-----------|
----------------------------------|----3---3---3---3---3---3---------|
----------------------------------|----------------------------------|
--3---------------3-------------3-|--1---------------1---------------|


                                                                    
----------0------------0--------|----------0---------------0-------|
------1-------1------1-----3----|------1-------1-------1-------1---|
----2---2---2---2--2-----0---0--|----2---2---2---2---2---2---2-----|
--------------------------------|----------------------------------|
--0-----------------------------|--0---------------0-------------0-|
--------------------------------|----------------------------------|


                                                                      
----------------------------------|--------------------------0-------|
------0---3---0-------0---3---0---|----------1-----------------1-0-1-|
----0---0---0---0---0---0---0-----|------2-------2-------2-----------|
----------------------------------|----3---3---3---3---3---3---------|
----------------------------------|----------------------------------|
--3---------------3-------------3-|--1---------------1---------------|


                                                                  
----------0------------0-----0--|--------------------------------|
------1-------1------1---0-1----|---------0--------------0-------|
----2---2---2---2--2------------|-------2---2---2------2---2---2-|
--------------------------------|-----3-------3------3-------3---|
--0-----------------------------|--------------------------------|
--------------------------------|--1--------------1--------------|


                                                                  
---------0--------------0-------|--------------------------------|
-------1---1---1-3----1---1-0-1-|---------0--------------0-------|
-----2-------2------2-5-----2---|-------2---2---2------2---2---2-|
--------------------------------|-----3-------3------3-------3---|
--0--------------0--------------|--------------------------------|
--------------------------------|--1--------------1--------------|


                                                                  
---------0--------------0-------|--------------------------------|
-------1---1---1-3----1---1-0-1-|---------0--------------0-------|
-----2-------2------2-5-----2---|-------2---2---2------2---2---2-|
--------------------------------|-----3-------3------3-------3---|
--0--------------0--------------|--------------------------------|
--------------------------------|--1--------------1--------------|


                                                                  
---------0--------------0-------|--------------------------------|
-------1---1---1-3----1---1-0-1-|---------0--------------0-------|
-----2-------2------2-5-----2---|-------2---2---2------2---2---2-|
--------------------------------|-----3-------3------3-------3---|
--0--------------0--------------|--------------------------------|
--------------------------------|--1--------------1--------------|


                                                                   
----------------------------------|-------------------------------|
------0---3---0-------0---3---0---|------0---3---0-------0---3----|
----0---0---0---0---0---0---0---0-|----0---0---0---0---0---0------|
----------------------------------|-------------------------------|
----------------------------------|-------------------------------|
--3---------------3---------------|--0---------------0------------|


                                                                      
----------0---------------0-------|----------------------------------|
------1-------1-------1-------1---|------0---3---0-------0---3---0---|
----2---2---2---2---2---2---2-----|----0---0---0---0---0---0---0-----|
----------------------------------|----------------------------------|
--0---------------0-------------0-|----------------------------------|
----------------------------------|--3---------------3-------------3-|


                                                            
--------------------------0-------|----------0------------||
----------1-----------------1-0-1-|------1----------------||
------2-------2-------2-----------|----2---2--------------||
----3---3---3---3---3---3---------|-----------------------||
----------------------------------|--0--------------------||
--1---------------1---------------|-----------------------||
00:00 / 00:00
Outros vídeos desta música
Repetir
Outros vídeos desta música
Compositor não encontrado.
Colaboração e revisão:
  • marcos rolim
7.603 exibições
    • ½ Tom
    • A
    • Bb
    • B
    • C
    • Db
    • D
    • Eb
    • E
    • F
    • F#
    • G
    • Ab
  • Adicionar à lista

    0 comentários

    Ver todos os comentários

    Entre para oCifra Club PRO

    Tenha acesso a benefícios exclusivos no App e no Site

    • Chega de anúncios

    • Prioridade de compra em lançamentos

    • Mais recursos no app do Afinador

    • Atendimento Prioritário

    • Descontos nos produtos Cifra Club

    • Ajude a produzir mais conteúdo

    00:00 / 00:00

    Cifra Club Pro

    Aproveite o Cifra Club com benefícios exclusivos e sem anúncios
    Cifra Club Pro
    Aproveite o Cifra Club com benefícios exclusivos e sem anúncios
    OK