Cifra Club

Aprenda

Crazy Train Solo

Ozzy Osbourne

Cifra: Principal (violão e guitarra)
tom: B
This is the full solo from Ozzy Osborne's Crazy Train. As far as
i know the solo isnt on here because i checked it out a
while back, it seemed that everything except the solo was here.
I don't understand much of it myself, i haven't even heard the song,
but apparently thats 100% accurate! So here's the solo, have fun.

E|-------------------------------------| 
B|-------------------------------------| 
G|-------------------------------------| 
D|---------------------------7-7-------| 
A|-4-4----7-7--2-2--4-4------5-5---2-2-| 
E|-2-2----5-5--0-0--2-2------------0-0-| 
 
E|----------------------------------| 
B|----------------------------------| 
G|----------------------------------| 
D|----------------------------------| 3x 
A|-----4---5---4--2--------2--------| 
E|-2-2---2---2---2---5p4p5---5p4p0~-| 
 
E|-----------------------------| 
B|----------5--------5----3--2-| 
G|----------6--------4----2--2-| 
D|----------7--------6----4--2-|2x 
A|-----0000-----0000----00--0--| 
E|-----------------------------| 

e----------------------------------------------------------------|
B|---14p7h10po7h10-14p7-14p7h10p7h10--14p7--14p7h10p7h10--14p7----|
G|----------------------------------------------------------------|
D|----------------------------------------------------------------|
A|----------------------------------------------------------------|
E|----------------------------------------------------------------|

e----------------------------------------------------------------|
B-14p7h10p7h10--15p7--15p7h10p7h10--15p7--15p7h10p7h10--15p7-----|
G|----------------------------------------------------------------|
D|----------------------------------------------------------------|
A|----------------------------------------------------------------|
E|----------------------------------------------------------------|

e---------------------------(w/bar-----------------)-------------|
B-15p7h10p7h10--15p10p7-----9h12p9--7h10p7--9h10p9---------------|
G|---------------------------------------------------9s7-9bu(11)--|
D|----------------------------------------------------------------|
A|----------------------------------------------------------------|
E|----------------------------------------------------------------|

e------------------17-16-14------------14-16-17-17bu(19)-14-17p14-|
B|--10------------x-----------17bu(19)-----------------------------|
G|-----9bu(11)--x--------------------------------------------------|
D|--------------(rake-)--------------------------------------------|
A|-----------------------------------------------------------------|
E|-----------------------------------------------------------------|

e-----14------------------------------------------(scoop)--------|
B|--17----17p15p14--15p14----14------------------15--15-----------|
G|------------------------16----16p14--16bu(18)----------14-14h16-|
D|----------------------------------------------------------------|
A|----------------------------------------------------------------|
E|----------------------------------------------------------------|

e--------14h17p14-----h17p14h18p15h18p15h18p16h19s21p17-21h18p21-|
B-14h17----------------------------------------------------------|
G|----------------------------------------------------------------|
D|----------------------------------------------------------------|
A|----------------------------------------------------------------|
E|----------------------------------------------------------------|

e-----19p17s16--xh19p16h19p16h19p16h19p16h19p16h19p16--14h15p14--|
B|----------------------------------------------------------------|
G|----------------------------------------------------------------|
D|----------------------------------------------------------------|
A|----------------------------------------------------------------|
E|----------------------------------------------------------------|

e--------------17----------17------------------------------------|
B|--17-17bu(19)----17bu(19)----17bu(19)-15-14------14----------14-|
G|---------------------------------------------16-----16p14h16----|
D|----------------------------------------------------------------|
A|----------------------------------------------------------------|
E|----------------------------------------------------------------|

e-----------------------------------------------------------------|
B|-----------------------------------------------------------~~~~~-|
G|-----------14----------14------------13-14-13-14-13h14p13---16---|
D|--16p14h16----16p14h16----16p14h16-------------------------------|
A|-----------------------------------------------------------------|
E|-----------------------------------------------------------------|

e-----------------------------------------------------------------|
B-~~~~~~-------------------------------------------------14h16h17-|
G|-----------------------------------------------13h14h16----------|
D|----------------------------11h13h14-13h14h16--------------------|
A|------------------11h12h14---------------------------------------|
E|---------11h12h14------------------------------------------------|

e--14-------19bu(21)--19bu(21)bd(19)~~~~~~--x-(pickscrape)--------|
B|-----17s19---------------------------------x-(pickscrape)--------|
G|-------------------------------------------x-(pickscrape)--------|
D|-----------------------------------------------------------------|
A|-----------------------------------------------------------------|
E|-----------------------------------------------------------------|


from Ian, email address is *
Colaboração e revisão:
  • Anna Gabriella
34.802 exibições
    • ½ Tom
    • A
    • Bb
    • B
    • C
    • Db
    • D
    • Eb
    • E
    • F
    • F#
    • G
    • Ab
  • Adicionar à lista

    0 comentários

    Ver todos os comentários

    Conseguiu tocar?

    5 Tocaram 1 Ainda não

    Grave um vídeo tocando Crazy Train Solo e nos envie!

    00:00 / 00:00
    outros vídeos desta música
    repetir qualidade Automático
    Outros vídeos desta música
    00:00 / 00:00
    Automático

    Cifra Club Pro

    Aproveite o Cifra Club com benefícios exclusivos e sem anúncios
    Cifra Club Pro
    Aproveite o Cifra Club com benefícios exclusivos e sem anúncios
    OK