Cifra Club

Aprenda

Crazy Train

Ozzy Osbourne

Cifra: Versão 7 (violão e guitarra)
tom: G
Intro 1:
E|---------------------------------|
B|---------------------------------|
G|---------------------------------| (3x)
D|---------------------------------|
A|-----4---5---4---2-------2-------|
E|-2-2---2---2---2---5-4-5---5-4-0-|

Intro 2:
E|---------------------------------|
B|---------------------------------|
G|---------------5--------7--------|
D|---------------5--------7--------|
A|-----4---5---4-3--------5--------|
E|-2-2---2---2---------------------|

Parte 1:
E|--------------------------------------|
B|---------2---------5---------3--------|
G|---------2---------4---------2--------|
D|---------2---------6---------4--------|
A|-0-0-0-0---0-0-0-0---0-0-0-0---0------|
E|---------------------------------3~~~-|

Parte 2:
E|---------------------------------------------|
B|---------2----------5--------3---------------|
G|---------2----------4--------2---4p2---------|
D|---------2----------6--------4-------4p2-----|
A|-0-0-0-0---0-0-0-0---0-0-0-0---0---------4p2-|
E|---------------------------------------------|

(Parte 1 - 8x)

Parte 3:           harmo---\
E|-----------------|--------|
B|-----------------|-----7--|
G|-----------------|---7----|
D|-------------2---|-7------|
A|-4-x-4-------0---|--------|
E|-2-x-2---4-5-----|--------|

Parte 4:
E|-----------------------------------|
B|-----------------------------------|
G|-----------------------------------|
D|-------------2---2-2-2-2-2-2-------|
A|-4-x-4-------0---0-0-0-0-0-0-------|
E|-2-x-2---4-5-----------------5-4-0-|

Parte 5:
E|----------------|
B|----------------|
G|----------------|
D|-2-2------------|
A|-0-0-----2------|
E|-----5-4-0---4~-|

Solo 1:
E|-------2---------------------------------------|
B|-----2---2-3-2---------------------------------|
G|-4b5-----------4-2-----------------------------|
D|-------------------4-2-------------------------|
A|-----------------------2-3-2h3p2h3p2h3p2h3-----|
E|-------------------------------------------4-2-|

(Parte 5)

Parte 6:
E|-----------------------------------------------|
B|-----------------------------------------------|
G|----------------------------------------5----7-|
D|-------------2--------------------------5----7-|
A|-4-x-4-------0-------2----------4-x-4---3----5-|
E|-2-x-2---4-5-----5-4-0---4~-----2-x-2----------|

(Parte 1)

(Parte 3) 

(Parte 4)

Solo 2:
E|---5-9---6-10---7-11----8-12----9-13----10-15----11-16----12-17----13-18-(18\0)-|
B|-7-----8------9------10------11------12-------13-------14-------15-------(18\0)-|
G|-------------------------------------------------------------------------(18\0)-|
D|--------------------------------------------------------------------------------|
A|--------------------------------------------------------------------------------|
E|--------------------------------------------------------------------------------|

(Parte 5)

(Parte 6)

Parte 7:
E|--------------------------------------------------------------------------------------|
B|--------------------------------------------------------------------------------------|
G|---------------------------------5-5---7-7---10-----------------------------5-5---7-7-|
D|-4-4-----2-2-------------4-4-----5-5---7-7---10-----2-2-------------4-4-----5-5---7-7-|
A|-4-4-----0-0-----2-2-----4-4-----3-3---5-5---9------0-0-----2-2-----4-4-----3-3---5-5-|
E|-2-2---------5-4-0-0-----2-2----------------------------5-4-0-0-----2-2---------------|

Solo 3: (principal)
    +       +       +       +       +       +       +       +
E|-----------------------------------------------------------------|
B|-14-7-10-14-7-10-14-7-10-14-7-10-14-7-10-14-7-10-14-7-10-14-7-10-|
G|-----------------------------------------------------------------|
D|-----------------------------------------------------------------|
A|-----------------------------------------------------------------|
E|-----------------------------------------------------------------|
    +       +       +       +       +       +       +       +
E|-----------------------------------------------------------------|
B|-15-7-10-15-7-10-15-7-10-15-7-10-15-7-10-15-7-10-15-7-10-15-7-10-|
G|-----------------------------------------------------------------|
D|-----------------------------------------------------------------|
A|-----------------------------------------------------------------|
E|-----------------------------------------------------------------|

E|------------------------------------------------15-14-12-----------12-14-15b17~-|
B|-9h12p9h12-8h11p8h11-7h10p7h10------10-------------------15~~---15--------------|
G|-------------------------------9b10----10r9-------------------------------------|
D|--------------------------------------------------------------------------------|
A|--------------------------------------------------------------------------------|
E|--------------------------------------------------------------------------------|

E|-12h15p12h15p12h15p12h15-------------------------------------------|
B|-------------------------13h15p13h15p13h15p13h15-------------13h15-|
G|-------------------------------------------------13h15b17~~--------|
D|-------------------------------------------------------------------|
A|-------------------------------------------------------------------|
E|-------------------------------------------------------------------|

E|-12h15p12h15p12h15p12h15-14h17p14h17p14h17p14h17-15h19p15h19p15h19-14h17p14h17p14h17-12h15p12h15p12h15p12h15-|
B|-------------------------------------------------------------------------------------------------------------|
G|-------------------------------------------------------------------------------------------------------------|
D|-------------------------------------------------------------------------------------------------------------|
A|-------------------------------------------------------------------------------------------------------------|
E|-------------------------------------------------------------------------------------------------------------|

E|-------12--------------------------------------------------------------------------|
B|-15b17----15~~---------------------------------------------------------------------|
G|-------------------17h15-------17h15-------17h15-------12h13p12h13p12h13p12h13p12~-|
D|-------------------------17h15-------17h15-------17h15-----------------------------|
A|-----------------------------------------------------------------------------------|
E|-----------------------------------------------------------------------------------|

E|---------------------------------------------------------------|
B|----------------------------------------------16h18h19b21r19~~-|
G|-------------------------------------15h17h18------------------|
D|-------------------11h12h14-13h15h16---------------------------|
A|----------11h12h14---------------------------------------------|
E|-11h12h14------------------------------------------------------|

(Intro)

(Parte 1)

(Parte 2)

(Parte 3)

(Parte 4)

(Parte 5)

(Parte 6)

Final:
E|---------------------------------------------|
B|---------------------------------------------|
G|---------------------------------------------|
D|-----------------------------7-7---------4-4-|
A|-4-4-----7-7---2-2---4-4-----5-5---2-2---4-4-|
E|-2-2-----5-5---0-0---2-2-----------0-0---2-2-|
Composição de Bob Daisley / Ozzy Osbourne / Randy Rhoads
Colaboração e revisão:
  • Luccas Mattos
1.934 exibições
    • ½ Tom
    • A
    • Bb
    • B
    • C
    • Db
    • D
    • Eb
    • E
    • F
    • F#
    • G
    • Ab
  • Adicionar à lista

    0 comentários

    Ver todos os comentários
    00:00 / 00:00
    outros vídeos desta música
    repetir qualidade Automático
    Outros vídeos desta música
    00:00 / 00:00
    Automático
    Capítulos
    • Início
    • Configuração do Efeito
    • Tocando a música
    • Acordes da Introdução e Estrofes
    • Tocando Introdução e Primeira Estrofe
    • Ensinando Riff da Introdução
    • Ensinando Riff das Estrofes
    • Acordes do Refrão
    • Tocando Refrão
    • Ensinando Refrão
    • Acordes da Ponte
    • Tocando Ponte
    • Ensinando Ponte
    • Tocando Solo
    • Ensinando Solo (Parte 1)
    • Ensinando Solo (Parte 2)
    • Ensinando Solo (Parte 3)
    • Ensinando Solo (Parte 4)
    • Ensinando Solo (Parte 5)
    • Ensinando Solo (Parte 6)
    • Ensinando Solo (Parte 7)
    • Ensinando Solo (Parte 8)
    • Ensinando Solo (Parte 9)
    • Ensinando Solo (Parte 10)
    • Encerramento

    Cifra Club Pro

    Aproveite o Cifra Club com benefícios exclusivos e sem anúncios
    Cifra Club Pro
    Aproveite o Cifra Club com benefícios exclusivos e sem anúncios
    OK