Cifra Club

Aprenda

Crazy Train

Ozzy Osbourne

Cifra: Versão 4 (violão e guitarra)
tom: D
Intro:riffs 1 e 2

Riff 1
E|-------------------------------------------------------------------------------------------
B|-------------------------------------------------------------------------------------------
G|-------------------------------------------------------------------------------------------
D|----------00-------------------------55------------------------00------------------55--77--
A|--22------00---00-----22-------------55----00---22-------------00--00-----22-------55--77--
E|--22-----------00-----22-------------------00---22-----------------00-----22---------------

Riff 2
E|---------------------------------------------------------------
B|---------------------------------------------------------------
G|---------------------------------------------------------------
D|---------------------------------------------------------------
A|-----------4-------5-------4-------2-------------2-------------
E|-----22-------2-------2-------2-------5---4---5----5---4---0---

All aboard, hahahahahahaha!

D5 E5 D5 A5 (faça o E5 na 7ª casa) 2x
D5 E5 D5 A5 
Crazy, but that's how it goes
Millions of people living as foes
Maybe it's not to late
To learn how to love
And forget how to hate

F#5 Em F#5 (rápido) A5
Mental wounds not healing
Life's a bitter shame

A5                  E5                   F#5
I'm going off the rails on a crazy train
A5                  E5             
I'm going off the rails on a crazy train
F#5 Em F#5 (rápido) A5 Em F#5 F#5 Em F#5 (rápido) D5 E5

D5 E5 D5 A5 
I've listened to preachers
I've listened to fools
I've watched all the dropouts
Who make their own rules
One person conditioned
To rule and control
The media sells it
And you live the role

F#5 Em F#5 (rápido) A5
Mental wounds still screaming
Driving me insane
A5                  E5                   F#5
I'm going off the rails on a crazy train
A5                  E5                  
I'm going off the rails on a crazy train
F#5 Em F#5 (rápido) A5 Em F#5 F#5 Em F#5 (rápido) D5 E5

Riff 1
I know that things are going wrong for me
You gotta listen to my words, yeah!

Solo base  D#5 E5 C5 B5   E5 D5 C5 B5   D5 E5 C5 B5   B5 C5 D5 D5 E5

Riff 2  

D5 E5 D5 A5 
Heirs of a cold war
That's what we've become
Inheriting troubles
I'm mentally numb
Crazy, I just can not bear
I'm living with something
That just isn't fair

F#5 Em F#5 (rápido) A5
Mental wounds not healing
Who and what's to blame

A5                  E5                   F#5
I'm going off the rails on a crazy train
A5                  E5                   
I'm going off the rails on a crazy train
F#5 Em F#5 (rápido) A5 Em F#5 F#5 Em F#5 (rápido) D5 E5

Riff 1
Composição de Bob Daisley / Ozzy Osbourne / Randy Rhoads
Colaboração e revisão:
  • Pedro
7.214 exibições
    • ½ Tom
    • A
    • Bb
    • B
    • C
    • Db
    • D
    • Eb
    • E
    • F
    • F#
    • G
    • Ab
  • Adicionar à lista

    0 comentários

    Ver todos os comentários
    00:00 / 00:00
    outros vídeos desta música
    repetir qualidade Automático
    Outros vídeos desta música
    00:00 / 00:00
    Automático
    Capítulos
    • Início
    • Configuração do Efeito
    • Tocando a música
    • Acordes da Introdução e Estrofes
    • Tocando Introdução e Primeira Estrofe
    • Ensinando Riff da Introdução
    • Ensinando Riff das Estrofes
    • Acordes do Refrão
    • Tocando Refrão
    • Ensinando Refrão
    • Acordes da Ponte
    • Tocando Ponte
    • Ensinando Ponte
    • Tocando Solo
    • Ensinando Solo (Parte 1)
    • Ensinando Solo (Parte 2)
    • Ensinando Solo (Parte 3)
    • Ensinando Solo (Parte 4)
    • Ensinando Solo (Parte 5)
    • Ensinando Solo (Parte 6)
    • Ensinando Solo (Parte 7)
    • Ensinando Solo (Parte 8)
    • Ensinando Solo (Parte 9)
    • Ensinando Solo (Parte 10)
    • Encerramento

    Cifra Club Pro

    Aproveite o Cifra Club com benefícios exclusivos e sem anúncios
    Cifra Club Pro
    Aproveite o Cifra Club com benefícios exclusivos e sem anúncios
    OK