Cifra Club

Aprenda

Crazy Train

Ozzy Osbourne

Cifra: Versão 5 (violão e guitarra)
tom: C
Intro

|------------------------------------------------
|------------------------------------------------
|------------------------------------------------
|------------------------------------------------X3
|------4-----5-----4-----2-----------2-----------
|2--2-----2-----2-----2-----5--4--5-----5--4--0--

|------------------------------------0-----------
|------------------------------------0-----------
|------------------------7-----------1-----------
|------------------------7-----------2-----------
|------4-----5-----4--2--5-----------2-----------
|2--2-----2-----2--------------------------------

==============================================================================
Verse

|--------------------------------------------------------
|-------5---------5----------3-----------2---------------
|-------6---------4----------2-----------2------------2--
|-------7---------6----------4-----------2------------2--
|0--0-0----0-0-0-----0-0-0-0----0-0-0-0-----------3/4----
|--------------------------------------------------------

|----------------------------------------------------------------------
|-------5---------5----------3-----------2-----------------------------
|-------6---------4----------2-----------2--------4p2p0----------------
|-------7---------6----------4-----------2--------------4p2p0----------
|0--0-0----0-0-0-----0-0-0-0----0-0-0-0-----------------------4p2p0----
|----------------------------------------------------------------------

|--------------------------------------------------------
|-------5---------5----------3-----------2---------------
|-------6---------4----------2-----------2---------------x7
|-------7---------6----------4-----------2------------2--
|0--0-0----0-0-0-----0-0-0-0----0-0-0-0-----------3/4-2--
|--------------------------------------------------------

the riff leading into the pre-chorus changed each time it goes round (possibly). I had help hearing this
bit out, and everybody had a different opinion. But here are the 3 i play

First time round play fig1
Second, play fig2
Third, play fig3

Fig1
|-------------------------------------
|------------5-/-3---------3--------2-
|------2-----4-/-2---------2--------2-
|------2-------------------0--------2-
|---0--0-[5]------------------------0-
|3-------------------0--2-----2--4----

Fig2
|--------------------------
|-------------------5------
|-------2-----------4------
|-------2------------------
|---3^-----3^p0------------
|0--------------3p0---0--2-

Fig3
|----------0---------------
|----5--0-2-------3-----2-
|----4--2-2-------2-----2-
|----7--2-2-------5-----2-
|3^----------------------0-
|------------0-2-5---2-4---

===============================================================================
Pre-chorus
 
(To bend the harmonic on the 7th fret 3rd string, grab the bottom left of the guitar and push forward on
the neck...carefuly)
                                
|---------------------------------------
|---------------------3-----------------
|---------------------2--------[7]/----
|---------------------0------7----------
|4-----4--------4-----0-----------------
|2--0--2--------2--0--------------------

|----------------------------------------
|-----------------------3----------------
|-----------------------2----------------
|-----------------------0------0-[0]------
|4-----4-----------------------------42-
|2--0--2--------0--2p0-------------------

==============================================================================
Chorus

First time round, 

|---------------
|---------------
|2--------------x2
|2------------2-
|0------------2-
|---------4-2-0-

|1st time the song comes to the chorus play Run 1
|2nd time round play Run 2
|3rd time round play Run 3

Run 1
|-----2---------------------------------------------------
|---2---5p2-3p2---2---------------------------------------
|4^-------------5---5p4p2---2-----------------------------
|-------------------------4---4-2---2---------------------
|---------------------------------4---4-3p2-3p2-3p2-3p2-
|------------------------------------------------------5^-

Run 2
|9p5---10p6---11p7---11p8---12p9----13p10----14p11----15p12----16p13----17p14----18p15-
|----7------8------9------9------10-------11-------12-------13-------14-------15-------
|--------------------------------------------------------------------------------------
|--------------------------------------------------------------------------------------
|--------------------------------------------------------------------------------------
|--------------------------------------------------------------------------------------

Run 3
|------------------------------------16---------------17---------------18-------
|-----14-17p14------15-18p15------16----19p16------17----20p17------18----21p18-
|16^-----------17^-----------18^--------------19^--------------20^--------------
|-------------------------------------------------------------------------------
|-------------------------------------------------------------------------------
|-------------------------------------------------------------------------------

|---------------------------------------------------------------------
|---------------------------------------------------------------------
|2---------------------------------------------------------------7--9-
|2------------2--------------------------------------------------5--7-
|0------------2----4---4[4]----4-6-7--6-4-2--4-6--4---4[4][4]4-6------
|---------4-2-0----2-0-2---[5]-2-4-5--4-2-0--2-4--2-0-2------2-4------


============================================================================================
"The Solo." 


I have never actually had the experience of bending and holding it while tapping. Nothing like learning
something new.
When its like ^full--------half------/full...  means that you hold the bend and go down to half step if
you were in full step, and then back up to full where indicated. Thought i would clarify that.


 T     T          T     T          T     T          T     T  
|------------------------------------------------------------------------
|14-10-14-10p7h10-14-10-14-10p7h10-14-10-14-10p7h10-14-10-14-10p7h10-----
|------------------------------------------------------------------------
|------------------------------------------------------------------------
|------------------------------------------------------------------------
|------------------------------------------------------------------------

 T     T          T     T          T     T          T     T       ^full & hold
|-------------------------------------------------------------------
|15-10-15-10p7h10-15-10-15-10p7h10-15-10-15-10p7h10-15-10-15-10-----
|---------------------------------------------------------------11^-
|-------------------------------------------------------------------
|-------------------------------------------------------------------
|-------------------------------------------------------------------
                                           
 -------------half-------------/full------------                                                       
 T     T          T     T          T     T     T                                                         
|------------------------------------------------------------------------
|-------------------------------------------------------------10---------
|14-11-14-11------14-11-14-11------12-11-12-11-12--117-9^--------9^~----
|------------------------------------------------------------------------
|------------------------------------------------------------------------
|------------------------------------------------------------------------
     
               ^full                ^full
|17--16--14-----------14--16--17--17^~------
|------------17^~---------------------------
|-------------------------------------------
|-------------------------------------------
|-------------------------------------------
|-------------------------------------------

                                                   ^full---
|14-17p14----14-------------------------------------------------------------------
|---------17----17p15p14-15p14----14-----------------17---------------------14h17-
|------------------------------16----16p14-------16^----16--p14~------14h16-------
|------------------------------------------16p14----------------------------------
|---------------------------------------------------------------------------------
|---------------------------------------------------------------------------------

(i broke this down to pretty much everytime you pluck a string but remember there are no pauses)

|14h17p14h17p14h17p14h1714h17p14h18p15h18p15-
|--------------------------------------------
|--------------------------------------------
|--------------------------------------------
|--------------------------------------------
|--------------------------------------------

|18p16h20p17h21p17h21p17h21p17h21p17h21p17h21p17h21-17h19p17p16p14-
|------------------------------------------------------------------
|------------------------------------------------------------------
|------------------------------------------------------------------
|------------------------------------------------------------------
|------------------------------------------------------------------

                                                                ^full    ^full
|17h19p17p16p14-16h19p16h19p16-19p16h19p16h19p16h19p16-15-14-------17-------------------
|------------------------------------------------------------17-^------17^~--15--14-----
|------------------------------------------------------------------------------------16-
|---------------------------------------------------------------------------------------
|---------------------------------------------------------------------------------------
|---------------------------------------------------------------------------------------

|---------------------------------------------------------------------------------------
|---------------------------------------------------------------------------------------
|14-----------14-----------14-----------14-----------13h14p13h14-13h14p13h14p13----16~--
|----16p14h16-----16p14h16-----16p14h16-----16p14h16----------------------------16------
|---------------------------------------------------------------------------------------
|---------------------------------------------------------------------------------------

                                                                  ^full   ^full
|------------------------------------------------------14----17-19^~----19^--19~-
|------------------------------------------------14h17----19---------------------
|---------------------------------------13h14h16---------------------------------
|---------------------11h12h14-13h14h16------------------------------------------
|------------12h14h16------------------------------------------------------------
|11h12h14h16---------------------------------------------------------------------

and thats the solo. After, you return to the intro and the verse etc etc.
Composição de Bob Daisley / Ozzy Osbourne / Randy Rhoads
Colaboração e revisão:
  • Taino Vieira
4.919 exibições
    • ½ Tom
    • A
    • Bb
    • B
    • C
    • Db
    • D
    • Eb
    • E
    • F
    • F#
    • G
    • Ab
  • Adicionar à lista

    0 comentários

    Ver todos os comentários
    00:00 / 00:00
    outros vídeos desta música
    repetir qualidade Automático
    Outros vídeos desta música
    00:00 / 00:00
    Automático
    Capítulos
    • Início
    • Configuração do Efeito
    • Tocando a música
    • Acordes da Introdução e Estrofes
    • Tocando Introdução e Primeira Estrofe
    • Ensinando Riff da Introdução
    • Ensinando Riff das Estrofes
    • Acordes do Refrão
    • Tocando Refrão
    • Ensinando Refrão
    • Acordes da Ponte
    • Tocando Ponte
    • Ensinando Ponte
    • Tocando Solo
    • Ensinando Solo (Parte 1)
    • Ensinando Solo (Parte 2)
    • Ensinando Solo (Parte 3)
    • Ensinando Solo (Parte 4)
    • Ensinando Solo (Parte 5)
    • Ensinando Solo (Parte 6)
    • Ensinando Solo (Parte 7)
    • Ensinando Solo (Parte 8)
    • Ensinando Solo (Parte 9)
    • Ensinando Solo (Parte 10)
    • Encerramento

    Cifra Club Pro

    Aproveite o Cifra Club com benefícios exclusivos e sem anúncios
    Cifra Club Pro
    Aproveite o Cifra Club com benefícios exclusivos e sem anúncios
    OK