Crazy Train

Ozzy Osbourne

Composição de: Bob Daisley / Ozzy Osbourne / Randy Rhoads
tom: C
  riff 1
|------------------------------------|
|------------------------------------|
|------------------------------------| repeat 2 times
|------------------------------------|
|------4---5----4--2--------2--------|
|-2--2---2---2-------5-4-5----5-4--0-|
 riff 2
|------------------------------------|
|------------------------------------|
|------------------------------------|
|------------------------------------|
|------4---5----4--5-5-5-7-7-7-------|
|-2--2---2---2-----------------------|
   riff 3
|-----------5-----4------2----2-2-2-2-2---|
|-----------5-----5------3----2-2-2-2-2---| repeat 2 times
|-----------6-----4------2----2-2-2-2-2---|
|-----------7-----6------4----2-2-2-2-2---|
|-0-0-0-0------0--4--0---2--0-------------|
|-----------------------------------------|
   riff 4
|----------2-2---------------7-7--9-9--|
|----------2-2---------------7-7--9-9--| back to riff 1 then
|----------2-2--1-1----------7-7--9-9--| play 1 more time. 
|----------2-2--2-2----------7-7--9-9--|
|---------------3-3----------5-5--7-7--|
|--2-0-2-------------2-0-2-------------|

this is my frst tab and sorry i dont have the intro but i forgot that part!
Página 1 / 1

Letras e título
Acordes e artista

resetar configurações
OK