Cifra Club

Aprenda

Diary of a Madman

Ozzy Osbourne

Cifra: Completa (violão e guitarra)
tom: F (forma dos acordes no tom de C) Capotraste na 5ª casa
Intro:

E|------------------|-----------------|-----------------|-----------------|
A|--0---------------|-0---------------|-0---------------|-0---------------|
D|----7----------7--|---5----------5--|---4----------4--|---3----------3--|
G|------6------6----|-----6------6----|-----5------5----|-----4------4----|
B|--------4--4------|-------4--4------|-------4--4------|-------3--3------|
E|----------0-------|---------0-------|---------5-------|---------5-------|

E|------------------|-----------------|-3---------------|-1---------------|
A|--0---------------|-0---------------|-----------------|-----------------|
D|----2----------2--|---2----------2--|-----------------|-----------------|
G|------4------4----|-----4------4----|---4--4----4-----|---2--2----2-----|
B|--------2--2------|-------1--1------|-----1----1--1---|-----3----3--3---|
E|----------0-------|---------0-------|---------0-------|---------0-------|

E|--0---------------------------|
A|----2--2----------------------|
D|------4--4----4---------------|
G|------------1---1---1-------4-|
B|------------------0---0-0-0-3-|
E|------------------------0-----|

RIFF A:
E|--------------------------------------|---------------------------------|
A|--0-----------0-----------------------|-0---------------------------0---|
D|----2---2---2---2---2---2---2---2-----|---2---2---2---2---2---2---2---2-|
G|------5---4-------2---4---5---4---2---|-----5---4---2---4---5---4-------|
B|------------------------------------2-|---------------------------------|
E|--------------------------------------|---------------------------------|
End RIFF A

RIFF B:
E|------------------------------------|------------------------------------|
A|--0---------------------------------|--0---------------------------------|
D|------------5-------4--------3------|------------5-------4--------3------|
G|----------6---6-----5--------4------|----------6---6-----5--------4------|
B|--------4-------4---4--------3------|--------4-------4---4--------3------|
E|------0-------------------5------5--|------0-------------------5------0--|

End RIFF B

Play Verse 1 with RIFF B:

Screaming at the window
Watch me die another day
Hopeless situation
Endless price I have to pay

Am       G        F       G        F       G
   Sanity now is beyond      me       There's no  choice
E|-----------3--------1-------3------|-1-------3-------|
A|--0--------------------------------|-----------------|
D|-----------------------------------|-----------------|
G|--------4-----4--------2---------2-|---2-----2-------|
B|-----1-----------1-------1--3--1---|-----3-----0--1--|
E|-----------------------------------|-----------------|

RIFF B once

Verse 2 with RIFF B:

Diary of a madman
Walk the line again today
Entries of confusion
Dear diary, I'm here to stay
Am       G        F       G        F       G      Am     F   G
   Manic depression befriends me      Hear his voice
E|-----------3--------1-------3------|-1-------3-------------1---3-------|
A|--0--------------------------------|----------------0------------------|
D|-----------------------------------|---------------------------0-------|
G|--------4-----4--------2---------2-|---2-----2----------4--2---0-------|
B|-----1-----------1-------1--3--1---|-----3-----0--1---1----1---0-------|
E|-----------------------------------|-----------------------------------|

   Am       G        F       G        F       G
   Sanity now is beyond      me       There's no  choice
E|-----------3--------1-------3------|-1-------3-------|
A|--0--------------------------------|-----------------|
D|-----------------------------------|-----------------|
G|--------4-----4--------2---------2-|---2-----2-------|
B|-----1-----------1-------1--3--1---|-----3-----0--1--|
E|-----------------------------------|-----------------|

Interlude:

E|--0-------------------|--0-------------------|--0-------------------|
A|----------------------|----------------------|----------------------|
D|----9-----------------|----9-----------------|----9-----------------|
G|--------11---11-------|--------11---11-------|--------11---11-------|
B|------8----8-------8--|------8----8-------8--|------8----8-------8--|
E|-----------------0----|-----------------0----|-----------------0----|

E|-----------------------|-------------------|----------------------|
A|-----------------------|-------------------|----------------------|
D|--10-------------------|--9----------------|----------------------|
G|-----11---11---11------|----7---7---7------|-11-----11---11---11--|
B|--------8----8------8--|------8---8-----8--|------0----0----------|
E|------------------0----|--------------0----|----0-----------0-----|

E|---------------------|-----------------------|------------------|
A|---------------------|-----------------------|------------------|
D|----9----------------|--10-------------------|--9---------------|
G|------11-------11----|-----11---11---11------|----7---7-----7---|
B|--8------8---8----8--|--------8----8------8--|------8-----8---8-|
E|-----------0---------|------------------0----|----------0-------|

                            A sickened mind and spirit
E|----------------------|-------------------|----------------------|
A|----------------------|-------------------|----------------------|
D|----------------------|---9---------------|----------------------|
G|-11-----11---11---11--|-----11-------11---|-----11---------12----|
B|------0----0----------|-8------8---8----8-|-10-----10---10----10-|
E|----0-----------0-----|----------0--------|--0--------0----------|

    The mirror tells me lies                  Could I mistake myself
E|---------------------|----------------------|--------------------|
A|---------------------|----------------------|--------------------|
D|-----9---------------|----------------------|----9---------------|
G|-------11-------11---|-----11----12-11-9-7--|------11-------11---|
B|--8------8---8----8--|-10-----10-12-10-8-7--|--8------8---8----8-|
E|----------0----------|--0-------------------|--0--------0--------|

  for someone             Who lives behind my eyes
E|----------------------|---------------------|----------------------|
A|----------------------|---------------------|----------------------|
D|----------------------|-----9---------------|----------------------|
G|-----11---------12-11-|-------11-------11---|-----11---------12-11-|
B|-10-----10---10----10-|--8------8---8----8--|-10-----10---10-------|
E|--0--------0----------|----------0----------|--0--------0----------|

   Will he escape my soul                         Or will he live in
E|---------------------|----------------------|--------------------|
A|---------------------|----------------------|--------------------|
D|-----9---------------|----------------------|----9---------------|
G|-------11-------11---|-----11----12-11-9-7--|------11-------11---|
B|--8------8---8----8--|-10-----10-12-10-8-7--|--8------8---8----8-|
E|----------0----------|--0-------------------|--0--------0--------|

  me                      Is he trying to get out
E|----------------------|---------------------|----------------------|
A|----------------------|---------------------|----------------------|
D|----------------------|-----9---------------|----------------------|
G|-----11---------12----|-------11-------11---|-----11---------12-11-|
B|-10-----10---10----10-|--8------8---8----8--|-10-----10---10----10-|
E|--0--------0----------|----------0----------|--0--------0----------|

or trying to enter me
E|---------------------|----------------------|--------------------|
A|---------------------|----------------------|--------------------|
D|-----9---------------|----------------------|----9---------------|
G|-------11-------11---|-----11----12-11-9-7--|------11-------11---|
B|--8------8---8----8--|-10-----10-12-10-8-7--|--8------8---8----8-|
E|----------0----------|--0-------------------|--0--------0--------|

E|----------------------|---------------------|----------------------|
A|----------------------|---------------------|----------------------|
D|----------------------|-----9---------------|----------------------|
G|-----11---------12-11-|-------11-------11---|-----11---------12----|
B|-10-----10---10-------|--8------8---8----8--|-10-----10---10----10-|
E|--0--------0----------|----------0----------|--0--------0----------|

E|--------------------|----------------------|
A|--------------------|----------------------|
D|-----9--------------|----------------------|
G|-------11-------11--|-----11----12-11-9-7--|
B|--8------8---8----8-|-10-----10-12-10-8-7--|
E|----------0---------|--0-------------------|

Verse 3 with RIFF B

Voices in the darkness
Scream away my mental health
Can I ask a question
To help me save me from myself

   Am       G        F       G        F       G      Am     F   G
   Enemies fill up the pages          Are   they    me
E|-----------3--------1-------3------|-1-------3-------------1---3-------|
A|--0--------------------------------|----------------0------------------|
D|-----------------------------------|---------------------------0-------|
G|--------4-----4--------2---------2-|---2-----2----------4--2---0-------|
B|-----1-----------1-------1--3--1---|-----3-----0--1---1----1---0-------|
E|-----------------------------------|-----------------------------------|

   Am       G        F       G        F       G
   Monday till Sunday in stages       Set me free
E|-----------3--------1-------3------|-1-------3-------|
A|--0--------------------------------|-----------------|
D|-----------------------------------|-----------------|
G|--------4-----4--------2---------2-|---2-----2-------|
B|-----1-----------1-------1--3--1---|-----3-----0--1--|
E|-----------------------------------|-----------------|

Repeat RIFF A till end
Composição de Lee Kerslake / Ozzy Osbourne / Randy Rhoads
Colaboração e revisão:
  • thiagobatista10
216 exibições
    • ½ Tom
    • A
    • Bb
    • B
    • C
    • Db
    • D
    • Eb
    • E
    • F
    • F#
    • G
    • Ab
  • Adicionar à lista

    0 comentários

    Ver todos os comentários

    Conseguiu tocar?

    0 Tocaram 0 Ainda não

    Grave um vídeo tocando Diary of a Madman e nos envie!

    00:00 / 00:00
    outros vídeos desta música
    repetir qualidade Automático
    Outros vídeos desta música
    00:00 / 00:00
    Automático

    Cifra Club Pro

    Aproveite o Cifra Club com benefícios exclusivos e sem anúncios
    Cifra Club Pro
    Aproveite o Cifra Club com benefícios exclusivos e sem anúncios
    OK