Cifra Club

Aprenda

Let Me Hear You Scream

Ozzy Osbourne

Cifra: Principal (violão e guitarra)
tom: B
(intro)

E|------------------------|--------------------------|--------------------------|
B|------------------------|--------------------------|--------------------------|
G|------------------------|--------------------------|--------------------------|
D|------------------------|--------------------------|--------------------------|
A|------------------------|--3--3--------6--6--------|--3--3--------6--6--------|
D|-----------7g15\--------|--3--3----0---6--6--x-0---|--3--3----0---6--6--x-0---|

                                                                                  PM PM PMPM
--------------------------|--------------------------|----------------------------------------|
--------------------------|--------------------------|----------------------------------------|
--------------------------|--------------------------|----------------------------------------|
--------------------------|--------------------------|----------------------------------------|
--3--3--------6--6--------|--3-----------------------|----------------------------5--3--0-----|
--3--3----0---6--6--x-0---|--3--------------7g12\----|--0--3h-5-0-3h-5-0-3h-5-0-0----------5--|

                        PM PM PM PM PM PM                          PM PM PM PM PM PM
------------------------------------------|------------------------------------------|
------------------------------------------|------------------------------------------|
------------------------------------------|------------------------------------------|
------------------------------------------|------------------------------------------|
------------------------------------------|------------------------------5--3--0-----|
--0--3h-5-0-3h-5-0-3h-5-0--0--6--6--5--5--|--0--3h-5-0-3h-5-0-3h-5-0--0-----------5--|

                                           (verse 1)
                            PM PM PM PM    PM PM PM PM PM PM PM PM PM PM PM PM PM PM PM
----------------------------------------|-----------------------------------------------|
----------------------------------------|-----------------------------------------------|
----------------------------------------|-----------------------------------------------|
----------------------------------------|-----------------------------------------------|
----------------------------------------|-----------------------------------------------|
--0--3h-5-0-3h-5-0-3h-5-0-0-6--6--5--5--|--0--3--5--0--3--5--0--3--5--0--0--0--0--0--0--|

  PM PM PM PM PM PM PM PM PM PM PM     PM PM    PM PM PM PM PM PM PM PM PM PM PM PM PM PM PM
---------------------------------------------|-----------------------------------------------|
---------------------------------------------|-----------------------------------------------|
---------------------------------------------|-----------------------------------------------|
---------------------------------------------|-----------------------------------------------|
---------------------------------------------|-----------------------------------------------|
--0--3--5--0--3--5--0--3--5--0--0--3~--0--0--|--0--3--5--0--3--5--0--3--5--0--0--0--0--0--0--|

                        PM PM            PM PM PM PM PM PM PM PM PM PM PM PM PM PM PM
--------------------------------------|-----------------------------------------------|
--------------------------------------|-----------------------------------------------|
--------------------------------------|-----------------------------------------------|
--------------------------------------|-----------------------------------------------|
-----3h-5---3h-5---3h-5-------5-3-0---|-----------------------------------------------|
--0--3h-5-0-3h-5-0-3h-5-0--0--------5-|--0--3--5--0--3--5--0--3--5--0--0--0--0--0--0--|

  PM PM PM PM PM PM PM PM PM PM PM     PM PM    PM PM PM PM PM PM PM PM PM PM PM PM PM PM PM
---------------------------------------------|-----------------------------------------------|
---------------------------------------------|-----------------------------------------------|
---------------------------------------------|-----------------------------------------------|
---------------------------------------------|-----------------------------------------------|
---------------------------------------------|-----------------------------------------------|
--0--3--5--0--3--5--0--3--5--0--0--3~--0--0--|--0--3--5--0--3--5--0--3--5--0--0--0--0--0--0--|

                        PM PM            PM PM PM PM PM PM PM PM PM PM PM PM PM PM PM
--------------------------------------|-----------------------------------------------|
--------------------------------------|-----------------------------------------------|
--------------------------------------|-----------------------------------------------|
--------------------------------------|-----------------------------------------------|
-----3h-5---3h-5---3h-5-------5-3-0---|-----------------------------------------------|
--0--3h-5-0-3h-5-0-3h-5-0--0--------5-|--0--3--5--0--3--5--0--3--5--0--0--0--0--0--0--|

  PM PM PM PM PM PM PM PM PM PM PM     PM PM    PM PM PM PM PM PM PM PM PM PM PM PM PM PM PM
---------------------------------------------|-----------------------------------------------|
---------------------------------------------|-----------------------------------------------|
---------------------------------------------|-----------------------------------------------|
---------------------------------------------|-----------------------------------------------|
---------------------------------------------|-----------------------------------------------|
--0--3--5--0--3--5--0--3--5--0--0--3~--0--0--|--0--3--5--0--3--5--0--3--5--0--0--0--0--0--0--|

                        PM PM            PM PM PM PM PM PM PM PM PM PM PM PM PM PM PM
--------------------------------------|-----------------------------------------------|
--------------------------------------|-----------------------------------------------|
--------------------------------------|-----------------------------------------------|
--------------------------------------|-----------------------------------------------|
-----3h-5---3h-5---3h-5-------5-3-0---|-----------------------------------------------|
--0--3h-5-0-3h-5-0-3h-5-0--0--------5-|--0--3--5--0--3--5--0--3--5--0--0--0--0--0--0--|

  PM PM PM PM PM PM PM PM PM PM PM     PM PM    PM PM PM PM PM PM PM PM PM PM PM PM PM PM PM
---------------------------------------------|-----------------------------------------------|
---------------------------------------------|-----------------------------------------------|
---------------------------------------------|-----------------------------------------------|
---------------------------------------------|-----------------------------------------------|
---------------------------------------------|-----------------------------------------------|
--0--3--5--0--3--5--0--3--5--0--0--3~--0--0--|--0--3--5--0--3--5--0--3--5--0--0--0--0--0--0--|

                                        (pre-Chorus)
                        PM PM
--------------------------------------|-------------------------|------------------------|
--------------------------------------|-------------------------|------------------------|
--------------------------------------|-------------------------|------------------------|
--------------------------------------|-------------------------|------------------------|
-----3h-5---3h-5---3h-5-------5-3-0---|--8--8----8---8----8--8--|--8--8-----8---------8--|
--0--3h-5-0-3h-5-0-3h-5-0--0--------5-|--8--8----8---8----8--8--|--8--8-----8---------8--|

                                                            (refrão 1)
                   PM PM PM PM
------------------------------|----------------------------|-------------------|
------------------------------|----------------------------|-------------------|
------------------------------|----------------------------|-------------------|
------------------------------|----------------------------|--0----------------|
--10--------10----------------|--10----\------------12\----|--0----------------|
--10--------10----10-10-10-10-|--10----\------------12\----|--0----------------|

----------------------|---------------------|------------------------|-------------------|
----------------------|---------------------|------------------------|-------------------|
----------------------|---------------------|------------------------|-------------------|
----------------------|--3------------------|--5---------------------|--0----------------|
----------------------|--3------------------|--5---------------------|--0----------------|
---------------12\----|--3------------5b----|--5------------7g12\----|--0----------------|

                                           PM PM
------------------------|------------------------|--------------------------|
------------------------|------------------------|--------------------------|
------------------------|------------------------|--------------------------|
------------------------|--3---------------------|--5------5--5----12----\--|
------------------------|--3---------------------|--5------5--5----12----\--|
---------------7g12\----|--3---------------3--3--|--5------5--5-------------|

                                                                                  SH
---------------------------------------------|------------------------------------------|
---------------------------------------------|------------------------------------------|
---------------------------------------------|------------------------------------------|
---------------------------------------------|------------------------------------------|
---------------------------------------------|------------------------------------------|
--5p-3p-0-5p-3p-0-5p-3p-0-5p-3p-0-3h-5p-3p-0-|--5p-3p-0-5p-3p-0-5p-3p-0-5p-3p-0-6~------|

                                                                PM PM
---------------------------------------------|------------------------------------|
---------------------------------------------|------------------------------------|
---------------------------------------------|------------------------------------|
---------------------------------------------|------------------------------------|
---------------------------------------------|------------------------5--L\-------|
--5p-3p-0-5p-3p-0-5p-3p-0-5p-3p-0-3h-5p-3p-0-|--5p-3p-0-5p-3p-0-3--5--5--L\-------|

                            PM PM PM PM                          PM PM PM PM PM PM
----------------------------------------|------------------------------------------|
----------------------------------------|------------------------------------------|
----------------------------------------|------------------------------------------|
----------------------------------------|------------------------------------------|
----------------------------5--3--0-----|------------------------------------------|
--0--3h-5-0-3h-5-0-3h-5-0-0----------5--|--0--3h-5-0-3h-5-0-3h-5-0--0--6--6--5--5--|

                            PM PM PM PM                          PM PM PM PM PM PM
----------------------------------------|------------------------------------------|
----------------------------------------|------------------------------------------|
----------------------------------------|------------------------------------------|
----------------------------------------|------------------------------------------|
----------------------------5--3--0-----|-----3h-5---3h-5---3h-5-------------------|
--0--3h-5-0-3h-5-0-3h-5-0-0----------5--|--0--3h-5-0-3h-5-0-3h-5-0--0--6--6--5--5--|

(verso 2)
  PM PM PM PM PM PM PM PM PM PM PM PM PM PM PM    PM PM PM PM PM PM PM PM PM PM PM     PM PM
-----------------------------------------------|---------------------------------------------|
-----------------------------------------------|---------------------------------------------|
-----------------------------------------------|---------------------------------------------|
-----------------------------------------------|---------------------------------------------|
-----------------------------------------------|---------------------------------------------|
--0--3--5--0--3--5--0--3--5--0--0--0--0--0--0--|--0--3--5--0--3--5--0--3--5--0--0--3~--0--0--|

  PM PM PM PM PM PM PM PM PM PM PM PM PM PM PM                          PM PM
-----------------------------------------------|--------------------------------------|
-----------------------------------------------|--------------------------------------|
-----------------------------------------------|--------------------------------------|
-----------------------------------------------|--------------------------------------|
-----------------------------------------------|-----3h-5---3h-5---3h-5-------5-3-0---|
--0--3--5--0--3--5--0--3--5--0--0--0--0--0--0--|--0--3h-5-0-3h-5-0-3h-5-0--0--------5-|

  PM PM PM PM PM PM PM PM PM PM PM PM PM PM PM    PM PM PM PM PM PM PM PM PM PM PM     PM PM
-----------------------------------------------|---------------------------------------------|
-----------------------------------------------|---------------------------------------------|
-----------------------------------------------|---------------------------------------------|
-----------------------------------------------|---------------------------------------------|
-----------------------------------------------|---------------------------------------------|
--0--3--5--0--3--5--0--3--5--0--0--0--0--0--0--|--0--3--5--0--3--5--0--3--5--0--0--3~--0--0--|

  PM PM PM PM PM PM PM PM PM PM PM PM PM PM PM                          PM PM
-----------------------------------------------|--------------------------------------|
-----------------------------------------------|--------------------------------------|
-----------------------------------------------|--------------------------------------|
-----------------------------------------------|--------------------------------------|
-----------------------------------------------|-----3h-5---3h-5---3h-5-------5-3-0---|
--0--3--5--0--3--5--0--3--5--0--0--0--0--0--0--|--0--3h-5-0-3h-5-0-3h-5-0--0--------5-|

  PM PM PM PM PM PM PM PM PM PM PM PM PM PM PM    PM PM PM PM PM PM PM PM PM PM PM     PM PM
-----------------------------------------------|---------------------------------------------|
-----------------------------------------------|---------------------------------------------|
-----------------------------------------------|---------------------------------------------|
-----------------------------------------------|---------------------------------------------|
-----------------------------------------------|---------------------------------------------|
--0--3--5--0--3--5--0--3--5--0--0--0--0--0--0--|--0--3--5--0--3--5--0--3--5--0--0--3~--0--0--|

  PM PM PM PM PM PM PM PM PM PM PM PM PM PM PM                          PM PM
-----------------------------------------------|--------------------------------------|
-----------------------------------------------|--------------------------------------|
-----------------------------------------------|--------------------------------------|
-----------------------------------------------|--------------------------------------|
-----------------------------------------------|-----3h-5---3h-5---3h-5-------5-3-0---|
--0--3--5--0--3--5--0--3--5--0--0--0--0--0--0--|--0--3h-5-0-3h-5-0-3h-5-0--0--------5-|

  PM PM PM PM PM PM PM PM PM PM PM PM PM PM PM    PM PM PM PM PM PM PM PM PM PM PM     PM PM
-----------------------------------------------|---------------------------------------------|
-----------------------------------------------|---------------------------------------------|
-----------------------------------------------|---------------------------------------------|
-----------------------------------------------|---------------------------------------------|
-----------------------------------------------|---------------------------------------------|
--0--3--5--0--3--5--0--3--5--0--0--0--0--0--0--|--0--3--5--0--3--5--0--3--5--0--0--3~--0--0--|

  PM PM PM PM PM PM PM PM PM PM PM PM PM PM PM                          PM PM
-----------------------------------------------|--------------------------------------|
-----------------------------------------------|--------------------------------------|
-----------------------------------------------|--------------------------------------|
-----------------------------------------------|--------------------------------------|
-----------------------------------------------|-----3h-5---3h-5---3h-5-------5-3-0---|
--0--3--5--0--3--5--0--3--5--0--0--0--0--0--0--|--0--3h-5-0-3h-5-0-3h-5-0--0--------5-|

(pré-refrão)
                                                                   PM PM PM PM
-------------------------|------------------------|----------------------------|
-------------------------|------------------------|----------------------------|
-------------------------|------------------------|----------------------------|
--3--3----3---3----3--3--|--3--3-----3---------3--|--5--------5----------------|
--1--1----1---1----1--1--|--1--1-----1---------1--|--3--------3----3--3--3--3--|
-------------------------|------------------------|----------------------------|

                          (refrão 2)
--------------------------|-------------------|----------------------|---------------------|
--------------------------|-------------------|----------------------|---------------------|
--------------------------|-------------------|----------------------|---------------------|
--5---\-------------------|--0----------------|----------------------|--3------------------|
--3---\------------12\----|--0----------------|----------------------|--3------------------|
-------------------12\----|--0----------------|---------------12\----|--3------------5b----|

                                                                                      PM PM
------------------------|-------------------|----------------------|------------------------|
------------------------|-------------------|----------------------|------------------------|
------------------------|-------------------|----------------------|------------------------|
--5---------------------|--0----------------|----------------------|--3---------------------|
--5---------------------|--0----------------|----------------------|--3---------------------|
--5------------7g12\----|--0----------------|---------------12\----|--3---------------3--3--|

--------------------------|---------------------------------------------|
--------------------------|---------------------------------------------|
--------------------------|---------------------------------------------|
--5------5--5----12----\--|---------------------------------------------|
--5------5--5----12----\--|---------------------------------------------|
--5------5--5-------------|--5p-3p-0-5p-3p-0-5p-3p-0-5p-3p-0-3h-5p-3p-0-|

                                    SH
------------------------------------------|---------------------------------------------|
------------------------------------------|---------------------------------------------|
------------------------------------------|---------------------------------------------|
------------------------------------------|---------------------------------------------|
------------------------------------------|---------------------------------------------|
--5p-3p-0-5p-3p-0-5p-3p-0-5p-3p-0-6~----|--5p-3p-0-5p-3p-0-5p-3p-0-5p-3p-0-3h-5p-3p-0---|

----------------------------------|--------------------------|--------------------------|
----------------------------------|--------------------------|--------------------------|
----------------------------------|--------------------------|--------------------------|
----------------------------------|--------------------------|--------------------------|
----------------------5---\-------|--3--3--------6--6--------|--3--3--------6--6--------|
--5p-3p-0-5p-3p-0-5-3-5---\-------|--3--3----0---6--6--x-0---|--3--3----0---6--6--x-0---|

                                                     (solo)
--------------------------|--------------------------|--------------------------|
--------------------------|--------------------------|--------------------------|
--------------------------|--------------------------|--------------------------|
--------------------------|--------------------------|--------------------------|
--3--3--------6--6--------|--3--3--------6--6--------|--3--3--------6--6--------|
--3--3----0---6--6--x-0---|--3--3----0---6--6--x-0---|--3--3----0---6--6--x-0---|

--------------------------|--------------------------|--------------------------|
--------------------------|--------------------------|--------------------------|
--------------------------|--------------------------|--------------------------|
--------------------------|--------------------------|--------------------------|
--3--3--------6--6--------|--3--3--------6--6--------|--3--3--------6--6--------|
--3--3----0---6--6--x-0---|--3--3----0---6--6--x-0---|--3--3----0---6--6--x-0---|

--------------------------|--------------------------|--------------------------|
--------------------------|--------------------------|--------------------------|
--------------------------|--------------------------|--------------------------|
--------------------------|--------------------------|--------------------------|
--3--3--------6--6--------|--3--3--------6--6--------|--3--3--------6--6--------|
--3--3----0---6--6--x-0---|--3--3----0---6--6--x-0---|--3--3----0---6--6--x-0---|

                     (refrão 3)
---------------------|-------------------|----------------------|---------------------|
---------------------|-------------------|----------------------|---------------------|
---------------------|-------------------|----------------------|---------------------|
---------------------|--0----------------|----------------------|--3------------------|
--3------------------|--0----------------|----------------------|--3------------------|
--3------------------|--0----------------|---------------12\----|--3------------5b----|

                                                                                      PM PM
------------------------|-------------------|----------------------|------------------------|
------------------------|-------------------|----------------------|------------------------|
------------------------|-------------------|----------------------|------------------------|
--5---------------------|--0----------------|----------------------|--3---------------------|
--5---------------------|--0----------------|----------------------|--3---------------------|
--5------------7g12\----|--0----------------|---------------12\----|--3---------------3--3--|

--------------------------|-------------------|----------------------|---------------------|
--------------------------|-------------------|----------------------|---------------------|
--------------------------|-------------------|----------------------|---------------------|
--5------5--5----12----\--|--0----------------|----------------------|--3------------------|
--5------5--5----12----\--|--0----------------|----------------------|--3------------------|
--5------5--5-------------|--0----------------|---------------12\----|--3------------5b----|

                                                                                      PM PM
------------------------|-------------------|----------------------|------------------------|
------------------------|-------------------|----------------------|------------------------|
------------------------|-------------------|----------------------|------------------------|
--5---------------------|--0----------------|----------------------|--3---------------------|
--5---------------------|--0----------------|----------------------|--3---------------------|
--5------------7g12\----|--0----------------|---------------12\----|--3---------------3--3--|

--------------------------|---------------------------------------------|
--------------------------|---------------------------------------------|
--------------------------|---------------------------------------------|
--5------5--5----12----\--|---------------------------------------------|
--5------5--5----12----\--|---------------------------------------------|
--5------5--5-------------|--5p-3p-0-5p-3p-0-5p-3p-0-5p-3p-0-3h-5p-3p-0-|

                                    SH
------------------------------------------|---------------------------------------------|
------------------------------------------|---------------------------------------------|
------------------------------------------|---------------------------------------------|
------------------------------------------|---------------------------------------------|
------------------------------------------|---------------------------------------------|
--5p-3p-0-5p-3p-0-5p-3p-0-5p-3p-0-6~----|--5p-3p-0-5p-3p-0-5p-3p-0-5p-3p-0-3h-5p-3p-0---|

---------------------------------------|---------------------------------------------------------||
---------------------------------------|---------------------------------------------------------||
----------------------------------7----|---------------------------------------------------------||
----------------------------------7----|--0------------------------------------------------------||
----------------------------------5----|--0------------------------------------------------------||
--5p-3p-0-5p-3p-0-5p-3p-0-5p-3p-0------|--0------------------------------------------------------||

(intro - m.6)
E|-----------------------------|-----------------------------|-----------------------------|
B|--15----------------------\--|--14----------------------\--|--13----------------------\--|
G|--17b------~--------------\--|--16b------~--------------\--|--15b------~--------------\--|
D|-----------------------------|-----------------------------|-----------------------------|
A|-----------------------------|-----------------------------|-----------------------------|
E|-----------------------------|-----------------------------|-----------------------------|

                     |---3---|
--------------------10h-12p-10---------------------|---------------------|--------------------|
--12-----------12--------------13-10---------------|---------------------|--------------------|
--14b~----14b~-------x---------------12p-10--------|---------------------|--------------------|
--------------------------------------------12p-10-|--12~----------------|--------------------|
---------------------------------------------------|---------------------|--------------------|
---------------------------------------------------|---------------------|--------------------|

(verso 1 - m.17)
           ^
---------------------------------------|-----------------------|----------------------------|
---------------------------------------|-----------------------|----------------------------|
-------------10---~--------------------|-----------------------|----------------------------|
-----------x---------12-10-------------|--10g12----------------|--11---11-----11--11--------|
-----------x---------------12-11-10S-8-|-----------------------|----------------------------|
---------------------------------------|-----------------------|----------------------------|

                                                   PM PM
----------------------------|---------------------------|--------------------------------|
----------------------------|---------------------------|--------------------------------|
----------------------------|---------------------------|--------------------------------|
--10---10-----10--10--------|--9--9-----9--9------12-10-|--10h--12-------10h-12----------|
----------------------------|---------------------------|--------------------------------|
----------------------------|---------------------------|--------------------------------|

                                echo
----------------------------|----------------------------|----------------------------------------|
----------------------------|----------------------------|----------------------------------------|
----------------------------|----------------------------|------------------10p-9-----------------|
--11---11-----11------------|--10h--12-------9-----------|--9--9-----(9)-12-------12-10-----------|
----------------------------|----------------------------|------------------------------12-10S-8--|
----------------------------|----------------------------|----------------------------------------|

m.27
                                           |---3---|
E|----------------------|----------------10h-12p-10-------------------|----------------------|
B|-----------13b--------|--13~------13\-------------13-10-------------|----------------------|
G|----------------------|---------------------------------12-10-------|----------------------|
D|----------------------|---------------------------------------14-12-|--10------------------|
A|----------------------|---------------------------------------------|----------------------|
E|----------------------|---------------------------------------------|----------------------|

(refrão 1 - m.32)
----------------------|---------------------------------------------|-------------------|
----------------------|---------------------------------------------|-------------------|
----------------------|---------------------------------------------|-------------------|
----------------5b----|--5p-3p-0-5p-3p-0-5p-3p-0-5p-3p-0-3h-5p-3p-0-|-------------------|
----------------------|---------------------------------------------|-------------------|
----------------------|---------------------------------------------|-------------------|

m.42
---------------------------|---------------------------|---------------------------|
--15--------------------\--|--14--------------------\--|--13--------------------\--|
--17b~------------------\--|--16b~------------------\--|--15b~------------------\--|
---------------------------|---------------------------|---------------------------|
---------------------------|---------------------------|---------------------------|
---------------------------|---------------------------|---------------------------|

                                              (verso 2)
                                         PM PM
-----------------------10---------------------|-------------------------|-------------------|
--12------------\--13b----13p-10--------------|-------------------------|-------------------|
--14b~----------\----------------12p-10-------|-------------------------|-------------------|
----------------------------------------12-10-|--12~------10\-----------|-------------------|
----------------------------------------------|-----------10\-----------|-------------------|
----------------------------------------------|-------------------------|-------------------|

                       49                                  
-------------------|-------------------------------------|-------------------------|
-------------------|-------------------------------------|-------------------------|
-------------------|------------------------10p-9--------|-------------------------|
-------------------|--10-12~------12--12----------12p-10-|--10---12----------------|
-------------------|-------------------------------------|-------------------------|
-------------------|-------------------------------------|-------------------------|

--------------------|---------------------------------|--------------------------------------|
--------------------|---------------------------------|--------------------------------------|
--------------------|--10p-9--------------------------|----------------10p-9-----------------|
--11----------------|--------12p-10-12--10------------|--9---9----9-12-------12p-10----------|
--------------------|---------------------------------|-----------------------------12-10-8--|
--------------------|---------------------------------|--------------------------------------|

                                                        echo
-----------------------|----------------------------|--------------------------|
-----------------------|----------------------------|--------------------------|
-----------------------|----------------------------|--------------------------|
--10-12----------------|--11--11------11------------|--10h--12-----------------|
-----------------------|----------------------------|--------------------------|
-----------------------|----------------------------|--------------------------|

                                    echo
--------------------------------|--------------------------------|
--------------------------------|--------------------------------|
-------------------10p-9--------|--------------------------------|
--9---9----9-------------12p-10-|--10h--12-------10h-12----------|
--------------------------------|--------------------------------|
--------------------------------|--------------------------------|

                     PM PM PMPM  PM PM
--------------------------------------|--------------------------|
--------------------------------------|--------------------------|
--------------------------10-9--------|--------------------------|
--11---11----11-----12-12-------12-12-|--10h--12-----------------|
--------------------------------------|--------------------------|
--------------------------------------|--------------------------|

----------------------------------------|-------------------|----------------------|
----------------------------------------|-------------------|-----------13b--------|
----------------10p-9-------------------|-------------------|----------------------|
--9---9----9-12-------12p-10------------|-------------------|----------------------|
-----------------------------12-10-8S-7-|-------------------|----------------------|
----------------------------------------|-------------------|----------------------|

                 |---3---|
----------------10h-12p-10-------------------|--------------------------|
--13~------13\-------------13-10-------------|--------------------------|
---------------------------------12-10-------|--------------------------|
---------------------------------------14-12-|--10~------\--------------|
---------------------------------------------|--------------------------|
---------------------------------------------|--------------------------|

(refrão 2)
---------------------------|-------------------------------------|---------------------------|
---------------------------|-------------------------------------|---------------------------|
---------------------------|-------------------------------------|---------------------------|
----------------3h-5p-3p-0-|----------5p-3p-0-5p-3p-0-3h-5p-3p-0-|-------------5p-3p-0-5b----|
---------------------------|-------------------------------------|---------------------------|
---------------------------|-------------------------------------|---------------------------|

---------------------------------------------|-------------------|-------------------|
---------------------------------------------|-------------------|-------------------|
---------------------------------------------|-------------------|-------------------|
--5p-3p-0-5p-3p-0-5p-3p-0-5p-3p-0-3h-5p-3p-0-|-------------------|-------------------|
---------------------------------------------|-------------------|-------------------|
---------------------------------------------|-------------------|-------------------|

m.80      pick scrape
--------------------------------|
--------------------------------|
----------------------------(0)-|
--------------------------------|
------------x\----------x-------|
------------x\----------x-------|

        palm harmonics
        |--------3--------|  |--3--|  |--3--|  |--3--|  |--3--|
------------------------------------------------------------------------|
------------------------------------------------------------------------|
--------------------------------------------------------------------7/--|
------------------------------------------------------------------------|
--------4p-------------2p-0h-4p-2p-0h-4p-2p-0h-4p-2p-0h-4p-2p-0h-4------|
--(7)\------------------------------------------------------------------|

(solo)
-----20--------15--------17--------13--------15--------|
-------------------------------------------------------|
--21----21s-17----17s-19----19s-14----14s-17----17s-13-|
-------------------------------------------------------|
-------------------------------------------------------|
-------------------------------------------------------|

                                                  PM PM
                                       |--3--|  |--3-|
--10--------13--------8--------10------7h-8p-7-------0--|
-----------------------------------------------10-8-----|
-----12s-14----14s-11---10s-12----12\-------------------|
----------------------------------12\-------------------|
--------------------------------------------------------|
--------------------------------------------------------|

                                              PM  PMPM
                                              |--3--|   |-3-|  |-3-|
---------------------------------------------------------------------|
------------------------------------8----7---------------------------|
--10-12-10-9-----------------8-9-10---10-7----------7----------------|
-------------12-11-10-9-9-11---------------10-9--10----10-9-7--------|
--------------------------------------------------------------10-8-7-|
---------------------------------------------------------------------|

                                                                 PM PM                      PM PM
---------------------------------------|----------------------------------------------------------|
---------------------------------------|--12b--Lpbr--L----------------12b--Lpbr--L-10-12-10-------|
---------------------------------------|--12b--Lpbr--L-10-12-10-------12b--Lpbr--L-10-12-10----10-|
---------------------------------------|------------------------12-10-----------------------12----|
--8h-10p-8p-7--------------------------|----------------------------------------------------------|
--------------10-8-7~--------12g19\----|----------------------------------------------------------|

        PM
        |--3--|
-------10----------------------------------------|
----------13-10-10-------------------------------|
--12b-----------12b----12p-10-12b---L--L\-(0)----|
------------------------------------------(0)----|
-------------------------------------------------|
----------------------------------------------7/-|

   PM PM PM PM PM PM                                             PM PM PM
   |--3--|  |--3--|  |---3---|  |---3---|  |---3---|  |---3---|  |--3--|
-------------------------------------------------------------------------17-20-|
-----------------------------------------------------17h-18h-20-17-18-20-------|
-------------------------------15h-17h-19-15h-17h-19---------------------------|
-----------15-17-19-15h-17h-19-------------------------------------------------|
--15-17-19---------------------------------------------------------------------|
-------------------------------------------------------------------------------|

                              (refrão 3)
--20b-----Lb------------------|-------------------|-------------------|----------------------|
------------------------------|-------------------|-------------------|----------------------|
------------------------------|-------------------|-------------------|----------------------|
------------------------------|-------------------|-------------------|----------------5b----|
----------------17\-----------|-------------------|-------------------|----------------------|
-----------------------17\----|-------------------|-------------------|----------------------|

---------------------------------------------|-------------------|-------------------|
---------------------------------------------|-------------------|-------------------|
---------------------------------------------|-------------------|-------------------|
--5p-3p-0-5p-3p-0-5p-3p-0-5p-3p-0-3h-5p-3p-0-|-------------------|-------------------|
---------------------------------------------|-------------------|-------------------|
---------------------------------------------|-------------------|-------------------|

m.100
----------------------|---------------------------------------------|-------------------|
----------------------|---------------------------------------------|-------------------|
----------------------|---------------------------------------------|-------------------|
----------------5b----|--5p-3p-0-5p-3p-0-5p-3p-0-5p-3p-0-3h-5p-3p-0-|-------------------|
----------------------|---------------------------------------------|-------------------|
----------------------|---------------------------------------------|-------------------|

(intro - m.6)
E|-----------------------|-----------------------|-----------------------|---------------------|
B|-----------------------|-----------------------|-----------------------|---------------------|
G|--5b----------------\--|--4b----------------\--|--3b----------------\--|--2b-----------------|
D|-----------------------|-----------------------|-----------------------|---------------------|
A|-----------------------|-----------------------|-----------------------|---------------------|
E|-----------------------|-----------------------|-----------------------|---------------------|

(refrão 1 - m.42)
------------------------|------------------------|------------------------|
--3------------------\--|--5------------------\--|--6------------------\--|
--5b~----------------\--|--7b~----------------\--|--8b~----------------\--|
------------------------|------------------------|------------------------|
------------------------|------------------------|------------------------|
------------------------|------------------------|------------------------|

                          (verso 2)
--------------------------|--------------------|--------------------------|
---8----------\-----------|--------------------|--------------------------|
--10b~--------\-----------|--------------------|--------------------------|
--------------------------|--12----------------|--11--11-----11-----------|
--------------------------|--------------------|--------------------------|
--------------------------|--------------------|--------------------------|

----------------------------------|-----------------------|
----------------------------------|-----------------------|
----------------------------------|-----------------------|
--10h-12-10-10----10h-12----------|--9---9----9-----------|
----------------------------------|-----------------------|
----------------------------------|-----------------------|
Composição de Kevin Churko / Ozzy Osbourne
Colaboração e revisão:
  • Marcio Vieira
9.354 exibições
    • ½ Tom
    • A
    • Bb
    • B
    • C
    • Db
    • D
    • Eb
    • E
    • F
    • F#
    • G
    • Ab
  • Adicionar à lista

    0 comentários

    Ver todos os comentários

    Conseguiu tocar?

    2 Tocaram 0 Ainda não

    Grave um vídeo tocando Let Me Hear You Scream e nos envie!

    00:00 / 00:00
    outros vídeos desta música
    repetir qualidade Automático
    Outros vídeos desta música
    00:00 / 00:00
    Automático

    Cifra Club Pro

    Aproveite o Cifra Club com benefícios exclusivos e sem anúncios
    Cifra Club Pro
    Aproveite o Cifra Club com benefícios exclusivos e sem anúncios
    OK