Notificações Amigos pendentes

      Ozzy Osbourne

      Mama I'm Coming Home

      210.900 exibições
      Tom: A
      Introdução: E
      
      (Violão 1 – Seis Cordas)
      
      
      E|-12-------------------------------------------------|
      B|----12----------------------------------------------|
      G|-------b13r11--9------------------------------------|
      D|----------------------------------------------------|
      A|----------------------------------------------------|
      E|----------------------------------------------------|
      
      
      (Violão 2 – Doze Cordas)
      
      
      E|-----0------0----------0------0---------------------|
      B|-------0------0----------0------0-------------------|
      G|---9-----8------8----6-----4------4-----------------|
      D|----------------------------------------------------|
      A|----------------------------------------------------|
      E|-0--------------------------------------------------|
      
      
      E|---0------0--------0-------0------------------------|
      B|-----0------0--------0-------0----------------------|
      G|-2-----1------1---------1---------------------------|
      D|----------------4-------2---------------------------|
      A|----------------------------------------------------|
      E|----------------------------------------------------|
      
      
      E|-----0------0----------0------0---------------------|
      B|-------0------0----------0------0-------------------|
      G|--/9-----8------8----6-----4------4-----------------|
      D|----------------------------------------------------|
      A|----------------------------------------------------|
      E|-0--------------------------------------------------|
      
      
      E|---0------0--------0-------0------------------------|
      B|-----0------0--------0-------0----------------------|
      G|-2-----1------1---------1---------------------------|
      D|----------------4-------2---------------------------|
      A|----------------------------------------------------|
      E|----------------------------------------------------|
      
      
      
      Primeira Parte:
      
      (Violão 2 – Doze Cordas)
      
      
      E|-----0------0----------0------0---------------------|
      B|-------0------0----------0------0-------------------|
      G|--/9-----8------8----6-----4------4-----------------|
      D|----------------------------------------------------|
      A|----------------------------------------------------|
      E|-0--------------------------------------------------|
      
      
      E|---0------0--------0-------0------------------------|
      B|-----0------0--------0-------0----------------------|
      G|-2-----1------1---------1---------------------------|
      D|----------------4-------2---------------------------|
      A|----------------------------------------------------|
      E|----------------------------------------------------|
      
      
         A9
      E|--------0--------------0------------------|
      B|----------0--------------0----------------|
      G|-----2------2-------2------2--------------|
      D|---2--------------2-----------------------|
      A|-0--------------0-------------------------|
      E|------------------------------------------|
      
      
         E
      E|--------0----------0-------0--------------|
      B|----------0----------0-------0------------|
      G|------------1--1h2-----2/4----------------|
      D|-----2------------------------------------|
      A|---2--------------------------------------|
      E|-0----------------------------------------|
      
      
       E
      Times have changed
      
      And times are strange
      
      Here I come
                           A9
      But I ain't the same
                        E
      Mama, I'm coming home
      
      
      Times gone by
      
      Seems to be
      
      You could have been
                            A9
      A better friend to me
                        E
      Mama, I'm coming home
      
      
      Segunda Parte:
      
           C#m                 A9
      You took me in and you drove me out
                 E4        ( E    E4  E )
      Yeah, you had me hypnotized
       C#m                A
      Lost and found and turned around
              B
      By the fire in your eyes
      
      
         B
      E|-------7---------------7------------------|
      B|-----7----7--------------7----------------|
      G|---8--------8--------8-----8--------------|
      D|-9------------9----9---------9------------|
      A|------------------------------------------|
      E|-----------------7------------------------|
      
      
      Terceira Parte:
      
      (Guitarra Solo 1)
      
      
      E|----------------------------------------------------|
      B|--0-----0-----0-----0-------------------------------|
      G|-/4----/4----/4b6--b6r4-----------------------------|   (2x)
      D|----------------------------------------------------|
      A|----------------------------------------------------|
      E|----------------------------------------------------|
      
      
           E
      You made me cry
      
      You told me lies
                                       A9
      But I can't stand to say goodbye
                        E
      Mama, I'm coming home
      
      (Guitarra Solo 2)
      
      
      E|----------------------------------------------------|
      B|--------------9b10--b10r9~--------------------------|
      G|-/9----/9-------------------------------------------|
      D|----------------------------------------------------|
      A|----------------------------------------------------|
      E|----------------------------------------------------|
      
      
      I could be right
      
      I could be wrong
      
      It Hurts so bad, and it's been so long
      A9                   E
         Mama, I'm coming home
      
      
      Quarta Parte:
      
       C#m                      A9
      Selfish love, yeah we're both alone
           E4             (E    E4  E )
      The ride before the fall,    yeah
          C#m                  A9
      But I'm gonna take this heart of stone
              B5                ( F#  G# )
      I just got to have it all
      
      
      Primeiro Refrão:
      
      A9                                E
         I've seen your face a hundred times
      A9                       E   ( F#  G# )
         Everyday we've been apart
      A9          B9             E         A9
         I don't care about the sunshine, yeah
                    B11
      'Cause mama, mama
                  C   D11  E
      I'm coming home
                  C   D11  B5
      I'm coming home
      
      (Guitarra Solo 1)
      
      
      E|----------------------------------------------------|
      B|----------------------------------------------------|
      G|----------------------------------------------------|
      D|-/11~---9~---7~--7h9p7\6--7/9\7p6-------------------|
      A|----------------------------------------------------|
      E|----------------------------------7/9---------------|
      
      
      (Guitarra Solo 2)
      
      
      E|----------------------------------------------------|
      B|----------------------------------------------------|
      G|----------------------------------------------------|
      D|----------------------------------------------------|
      A|-/12~---11~---9~--9h11p9\7--9/11\9p7----------------|
      E|-------------------------------------7/9------------|
      
      
      (Violão 1 – Seis cordas)
      
      
         A9               B11
      E|---------0----------------0---------------|
      B|-----------0----------------0-------------|
      G|-----2-------2--------4-------4-----------|
      D|---2---2-------2----4---4-------4---------|
      A|-0----------------2-----------------------|
      E|------------------------------------------|
      
      
         C                  D11
      E|------------------------------------------|
      B|------------------------------------------|
      G|-----0-------0----------0-------0---------|
      D|---2---2---2---2------4---4---4---4-------|
      A|-3-------3----------5-------5-------------|
      E|------------------------------------------|
      
      
         B5
      E|------------------------------------------|
      B|------------------------------------------|
      G|-4-4-4-4--4-4-4-4--4-4-4-4---4------------|
      D|-4-4-4-4--4-4-4-4--4-4-4-4---4------------|
      A|-2-2-2-2--2-2-2-2--2-2-2-2---2------------|
      E|------------------------------------------|
      
      
      Ponte: G  A  E
             G5 E
             G  A  E
             B5
      
      (Violão 1 – Seis cordas)
      
      
      E|-3----/--5----/12---------12------------------------|
      B|---3--/----5--/12------12---------------------------|
      G|-----5/------6/13---13------------------------------|
      D|----------------------------------------------------|
      A|----------------------------------------------------|
      E|----------------------------------------------------|
      
      
      E|-3-2-------2-4~-------------------------------------|
      B|-----5-3-5------------------------------------------|
      G|----------------------------------------------------|
      D|----------------------------------------------------|
      A|----------------------------------------------------|
      E|----------------------------------------------------|
      
      
      E|-3----/--5----/12---------12------------------------|
      B|---3--/----5------------0---------------------------|
      G|-----5/------6/13---13------------------------------|
      D|----------------------------------------------------|
      A|----------------------------------------------------|
      E|----------------------------------------------------|
      
      
         B5
      E|------------------------------------------|
      B|------------------------------------------|
      G|-4-4-4-4--4-4-4-4--4-4-4-4---4-4-4-4------|
      D|-4-4-4-4--4-4-4-4--4-4-4-4---4-4-4-4------|
      A|-2-2-2-2--2-2-2-2--2-2-2-2---2-2-2-2------|
      E|------------------------------------------|
      
      
      
      (Violão 2 – Doze Cordas)
      
      
         G       A      E
      E|----------------0------0------------------|
      B|-0-------2------0----0----0---------------|
      G|---0-------2-------1--------0-------------|
      D|-----0-------2----------------2-----------|
      A|---------0--------------------------------|
      E|-3--------------0-------------------------|
      
      
         G5             E
      E|-----------------------0------------------|
      B|-3-------3------0----0---0----------------|
      G|---0-------0----1--1-------0--------------|
      D|-----0-------0---------------2------------|
      A|------------------------------------------|
      E|-3--------------0-------------------------|
      
      
         G       A      E
      E|-----------------------0------------------|
      B|-0-------2------0----0----0---------------|
      G|---0-------2-------1--------0-------------|
      D|-----0-------2----------------2-----------|
      A|---------0--------------------------------|
      E|-3--------------0-------------------------|
      
      
        B5
      E|------------------------------------------|
      B|------------------------------------------|
      G|-4-4-4-4--4-4-4-4--4-4-4-4---4-4-4-4------|
      D|-4-4-4-4--4-4-4-4--4-4-4-4---4-4-4-4------|
      A|-2-2-2-2--2-2-2-2--2-2-2-2---2-2-2-2------|
      E|------------------------------------------|
      
      
      
      Solo: A9  E  A9  E
            A9  B9 ( C#m  B9  A9 ) B5
      
      (Parte 1)
      
      
      E|----------------------------------------------------|
      B|----------------------------------------------------|
      G|------9----9--11b13---------------------------------|
      D|-9h11---11------------------------------------------|
      A|----------------------------------------------------|
      E|----------------------------------------------------|
      
      
      E|-12-----12------------------------------------------|
      B|-12b14--12b14r12p10--12--10--10h12p10-9~~-----------|
      G|----------------------------------------------------|
      D|----------------------------------------------------|
      A|----------------------------------------------------|
      E|----------------------------------------------------|
      
      
      (Parte 2)
      
      
      E|----------------------------------------------------|
      B|----------------------------------------------------|
      G|------9----9--11b13---------------------------------|
      D|-9h11---11------------------------------------------|
      A|----------------------------------------------------|
      E|----------------------------------------------------|
      
      
      E|-12-----12------------------------------------------|
      B|-12b14--12b14r12p10--12--10--10h12p10-9~~-----------|
      G|----------------------------------------------------|
      D|----------------------------------------------------|
      A|----------------------------------------------------|
      E|----------------------------------------------------|
      
      
      (Parte 3)
      
      
      E|----------------------------------------------------|
      B|----------------------------------------------------|
      G|------9----9----11b13r11p9-11~--9-------------------|
      D|-9h11---11------------------------------------------|
      A|----------------------------------------------------|
      E|----------------------------------------------------|
      
      
      E|-14b16r--14b16r--12h14-12----14b16r14p12-14~~-------|
      B|----------------------------------------------------|
      G|----------------------------------------------------|
      D|----------------------------------------------------|
      A|----------------------------------------------------|
      E|----------------------------------------------------|
      
      
      (Parte 4)
      
      
      E|-------17-18-19-20----------------------------------|
      B|-19b21-------------b21r19p17----17~-----------------|
      G|-----------------------------18---------------------|
      D|----------------------------------------------------|
      A|----------------------------------------------------|
      E|----------------------------------------------------|
      
      
      
      Quinta Parte:
      
           C#m                 A9
      You took me in and you drove me out
                 E4        ( E    E4  E )
      Yeah, you had me hypnotized,    yeah
       C#m                A
      Lost and found and turned around
              B5               ( F#  G# )
      By the fire in your eyes
      
      
      Segundo Refrão:
      
      A9                                 E
         I've seen your face a thousand times
      A9                       E
         Everyday we've been apart
      A9          B9             E         A9
         I don't care about the sunshine, yeah
                    B11
      'Cause mama, mama
                  C   D11  E
      I'm coming home
                  C   D11  E
      I'm coming home
                  C   D11  E
      I'm coming home
                  C   D11  E
      I'm coming home
      
      (Guitarra Solo 1)
      
      
      E|----------------------------------------------------|
      B|--------------------------------12------------------|
      G|-9~-11b12r11--11b12r11p9-11b13~~---b13r11--9-11p9---|   (3x)
      D|--------------------------------------------------11|
      A|----------------------------------------------------|
      E|----------------------------------------------------|
      
      
      E|----------------------------------------------------|
      B|----------------------------------------------------|
      G|-9~-11b12r11--11b13------------~--------------------|
      D|----------------------------------------------------|
      A|----------------------------------------------------|
      E|----------------------------------------------------|
      
      
      (Guitarra Solo 2)
      
      
      E|----------------------------------------------------|
      B|13~-15b17r15-------------------15-------------------|
      G|-------------14b16r14p13-14b16~---b16r14-13-14p13---|
      D|--------------------------------------------------14|
      A|----------------------------------------------------|
      E|----------------------------------------------------|
      
      
      E|----------------------------------------------------|
      B|-13~-15b17r15--17b18r17~----------------------------|
      G|----------------------------------------------------|
      D|----------------------------------------------------|
      A|----------------------------------------------------|
      E|----------------------------------------------------|
      
      
      (Violão 2 – Doze cordas)
      
      
      E|------0-----0-------0---0-----0---0-----------------|
      B|--------0-----0---0-------0---0---0-----------------|
      G|---/9-----8-----6-----4-----2---1-------------------|
      D|----------------------------------------------------|
      A|----------------------------------------------------|
      E|-0--------------------------------------------------|
      
      
                        E
      E|---0-----0------0-------------------------|
      B|-----0-----0----0-------------------------|
      G|-2-----1-----4--1-------------------------|
      D|----------------2-------------------------|
      A|----------------2-------------------------|
      E|----------------0-------------------------|
      
        Composição: Lemmy / Ozzy Osbourne / Zakk WyldeColaboração e revisão:
        • rossado
        • Rafael
        • Renato
        • N.a.n.o.
        • Padre_Quevedo
        • +1

        Comentários 21

        140 .
        • Asbesto Asbesto: Em 04/04/2016 15:07

          Onde está a video aula da versão completa que foi retirada do canal??

        • Bruno Lamoglia Bruno Lamoglia: Em 08/08/2015 15:26

          Nossa ta muito confuso essa cifra, a ordem dos trechos etc.

        • mauricio.engel mauricio.engel: Em 22/09/2014 20:42

          A vídeo aula está bloqueada em razão de uma reivindicação de direitos autorais... nada a ver haha

        • johnrambo johnrambo: Em 26/12/2013 17:34

          A cifra ta certa. Só que o tom é Eb. É so descer o violão meio tom e tocar como está ai.

        • william william: Em 09/11/2013 16:00

          Qual é o ritmo dessa musica ???

        • RUDIRICARDO RUDIRICARDO: Em 23/01/2013 06:40

          os acordes estão corretos, mas acho que o tom não é esse. outra coisa,as notas estão bem fora de lugar....confundirá quem tá iniciando!!!

        • mths59 mths59: Em 21/06/2012 10:10

          o tom não é E?

        • qwertyuiopghjk qwertyuiopghjk: Em 16/01/2012 11:23

          mas tem alguns erros!

        • qwertyuiopghjk qwertyuiopghjk: Em 16/01/2012 11:23

          cara é mto fáciil, mas coloquem uma vid aula pelo menos numa do ozzy e param de coloca no restart

        • lyahsd lyahsd: Em 15/01/2012 14:33

          Aff cade a video aula daki em!?

        140 cancelar
        0:00 / 0:00

        Capítulos

        1. Tocando a música
        2. Dicas iniciais / Equipamentos
        3. Regulagem Cub 12
        4. Afinação 1/2 tom abaixo
        5. Dicas Introdução
        6. Tocando Introdução
        7. Violão 1: Introdução
        8. Violão 2: Introdução - Parte 1 de 4
        9. Violão 2: Introdução - Parte 2 de 4
        10. Violão 2: Introdução - Parte 3 e 4
        11. Dicas e Acordes Primeira Parte
        12. Tocando Primeira Parte
        13. Violão 2: Primeira Parte - Parte 1 e 2
        14. Violão 2: Primeira Parte - Parte 3 de 4
        15. Violão 2: Primeira Parte - Parte 4 de 4
        16. Violão 2: Primeira Parte
        17. Dicas e Acordes Segunda Parte
        18. Tocando Segunda Parte
        19. Ensinando Segunda Parte
        20. Violão 2: Segunda Parte
        21. Dicas Terceira Parte
        22. Tocando Terceira Parte
        23. Guitarra Solo 1: Terceira Parte
        24. Guitarra Solo 2: Terceira Parte
        25. Dicas e Acordes Quarta Parte
        26. Acordes Quarta Parte (Guitarra)
        27. Tocando Quarta Parte
        28. Quarta Parte (Violão)
        29. Quarta Parte (Guitarra)
        30. Dicas e Acordes Primeiro Refrão
        31. Acordes Primeiro Refrão (Guitarra)
        32. Tocando Primeiro Refrão
        33. Primeiro Refrão (Violão)
        34. Violão 1: Primeiro Refrão - Parte 1 e 2
        35. Violão 1: Primeiro Refrão - Parte 3
        36. Violão 1: Primeiro Refrão - Parte 4
        37. Violão 1: Primeiro Refrão - Parte 5
        38. Primeiro Refrão (Guitarra)
        39. Guitarra Solo 1 - Primeiro Refrão
        40. Guitarra Solo 2 - Primeiro Refrão
        41. Dicas e Acordes Ponte
        42. Tocando Ponte
        43. Violão 1: Ponte - Parte 1 de 4
        44. Violão 1: Ponte - Parte 2 de 4
        45. Violão 1: Ponte - Parte 3 de 4
        46. Violão 1: Ponte - Parte 4 de 4
        47. Violão 2: Ponte - Parte 1 de 4
        48. Violão 2: Ponte - Parte 2 de 4
        49. Violão 2: Ponte - Parte 3 de 4
        50. Violão 2: Ponte - Parte 4 de 4
        51. Violão 2: Ponte
        52. Dicas Base do Solo
        53. Tocando Solo
        54. Solo - Parte 1 de 4
        55. Solo - Parte 2 de 4
        56. Solo - Parte 3 de 4
        57. Solo - Parte 4 de 4
        58. Solo
        59. Solo (Guitarra Base)
        60. Solo (Base Violão)
        61. Dicas Quinta Parte e Segundo Refrão
        62. Tocando Quinta Parte e Segundo Refrão
        63. Guitarra Solo 1: Final
        64. Guitarra Solo 2: Final
        65. Violão 2: Final - Parte 1 e 2
        66. Tocando música (1 violão e 1 guitarra)
        67. Encerramento
        68. Ficha técnica / Erros de gravação
        2 versões de violão dificuldade exibições contribuição e correção
        2 versões de guitarra dificuldade exibições contribuição e correção
        2 versões de cavaco dificuldade exibições contribuição e correção
        2 versões de teclado dificuldade exibições contribuição e correção
        1 versão de baixo exibições contribuição e correção
        4 versões de Guitar Proformatodownloadscontribuição
        play/pausefechar subir/descer velocidade
        6ª corda E5ª corda A4ª corda D3ª corda G2ª corda B1ª corda E
          acordes
          publicidade
          fechar
          ok