Cifra Club

No Easy Way Out

Ozzy Osbourne

Cifra: Principal (violão e guitarra)
tom: F
(intro)
                                                   p.h.
e|--------------------|-------------|--------------(12)-----------|
b|--------------------|-------------|--------------(12)-----------|
g|-----0-----0-0-(x3)-|-------------|-----------------------------|
d|---0-----0---0------|--3--3-3-----|-----------------------------|
a|-3-----2-----1------|--3--3-3-----|-----------------------------|
e|--------------------|--1--5-5-----|-----------------------------|

(play rhyf|g1 then play f|ll 1)

   (rhyf|g1)                             (f|ll 1)
e|------------------------------------|----------------------|
b|------------------------------------|----------------------|
g|------------------------------(x4)--|----------------------|
d|-5-5-5-5--8-8-8--xx---3/5--xx-------|----------------------|
a|-5-5-5-5--8-8-8--xx---3/5--xx-------|------(5)-p.h.--------|
e|-3-3-3-3--6-6-6--xx---1/3--xx-------|---3^-----------------|

(play rhyfig1 dur|ng verse 7x then play chorus)

(chorus)
e|---------------------------------------------|
b|--3--xxxx--5--xxxx--6--xxxx--5---------------|
g|--x--xxxx--x--xxxx--x--xxxx--x---------------|
d|--2--xxxx--4--xxxx--5--xxxx--4---------------|
a|-----------------------------------xx-x-xx-x-|
e|-----------------------------------xx-x-xx-x-|

e|--------------------------------|
b|--3--xxxx--5--xxxx--6--xxxx--8--|
g|--x--xxxx--x--xxxx--x--xxxx--x--|
d|--2--xxxx--4--xxxx--5--xxxx--7--|
a|--------------------------------|
e|--------------------------------|

(play into 3x - then play rhy fig1 for verse 2)

(play chorus then play rhyfig2)

(rhyfi g2 w/steady gliss)
e|----------------------------------------------------------------0-|
b|------0-------0-------0-------0-------0-------0-------0-------0---|
g|----0---0---0---0---0---0---0---0---0---0---0---0---0---0---0-----|
d|--3-------3-------2-------2-------3-------0-------2-------2-------|
a|------------------------------------------------------------------|
e|------------------------------------------------------------------|

(play chorus 2x - after solo then play intro)
Composição de Ozzy Osbourne / Tim Palmer
1.514 exibições
    • ½ Tom
    • A
    • Bb
    • B
    • C
    • Db
    • D
    • Eb
    • E
    • F
    • F#
    • G
    • Ab
  • Adicionar à lista

    0 comentários

    Ver todos os comentários

    Conseguiu tocar?

    1 Tocaram 0 Ainda não

    Grave um vídeo tocando No Easy Way Out e nos envie!

    00:00 / 00:00
    Outros vídeos desta música
    Repetir Qualidade Automático
    Outros vídeos desta música
    00:00 / 00:00
    Automático

    Cifra Club Pro

    Aproveite o Cifra Club com benefícios exclusivos e sem anúncios
    Cifra Club Pro
    Aproveite o Cifra Club com benefícios exclusivos e sem anúncios
    OK