Cifra Club

Aprenda

No More Tears

Ozzy Osbourne

Cifra: Principal (violão e guitarra)
tom: G
Intro (Baixo): 
Riff:                          
Db|-----||----------------------------||-(10)/(13)/(14)/------------------
Ab|-----||----------------------------||-(10)/(13)/(14)/----(15)\(14)\----
 E|-----|.----------------------------.|------(13)/(14)/----(15)\(14)\----
 B|-----|.---------H---------H------H-.|----------------------------------
Gb|---H-||-------3-5-------3-5----3-5-||----------------------------------
Db|-3-5-||-0--0------0--0------0------||----------------------------------

(Com Slide)                
Db|-----------------------------||----------------------------------------
Ab|-----------------------------||----------------------------------------
 E|-(8)/(12)\(10)\----(3)/(10)--|.--5/7----/12\11/12\11-------------------
 B|-(8)/(12)\(10)\----(3)/(10)--|.--5/7------------------12-------\10-----
Gb|-----------------------------||---------------------------12---\10-----
Db|-----------------------------||----------------------------------------

Db|----------------/13\--||-----------------------------------------------
Ab|----------------/13\--||-----------------------------------------------
 E|--7/10----7/12--------.|-----------------------------------------------
 B|--7/10----7/12\-------.|--0-------0-3-0-/6--5-3-5-3---/6--------------0
Gb|----------------------||--0-------0-3-0-/6--5-3-5-3---/6--5-----------0
Db|----------------------||--0-------0-3-0-/6--5-3-5-3-0-/6--5-3-5-3(PH)-0

Db|----------------------------------------------||-----------------------
Ab|----------------------------------------------||----------5------------
 E|--0/10-0--/13--12\10/12\10/13----12\10/12\10\-.|----------4------------
 B|--0/10-0--/13--12\10/12\10/13----12\10/12/10\-.|-0--------2------------
Gb|----------------------------------------------||-0--------2------------
Db|----------------------------------------------||-0--0-0-0-2--0-0-0-0-0-
                                           
                                               Your mamma told you
Db|----------------------------------------------------------------------
Ab|----6-------------------------TR------------------5----------------6--
 E|----5------------3(3)--------353------------------4----------------5--
 B|----3------------3(3)----3/5---------0------------2----------------3--
Gb|----3------------1(1)----------------0------------2----------------3--
Db|-00-3--0-0-0-0-0---------------------0--0-0-0-0-0-2--0-0-0-0-0--00-3--
         ...to talk to strangers.       Look in the mirror

Db|--------------------------------------/13\-||------------------------
Ab|------------------TR-----/9-----/10---/13\-||------------------------
 E|-----------3-----353----4/9----5/10--------|.---7----5----4----3-----
 B|-----------3--8---------4/9----5/10--------|.-0----0-----------3-----
Gb|-----------1--8----------------------------||----------/5----5-------
Db|-0-0-0-0-0----8----------------------------||------------------------

(3x)
Db|---------||
Ab|---------||
 E|---------.|
 B|---------.|
Gb|-5-6-5-3-||
Db|-5-6-5-3-||
 . . . .

Solo:
Db|----------------------------------------------------------------------
Ab|----------------10---B(full)------------------B(full)----P---B--B(full)
 E|--11----11--12------12------12--11--9--10----12-----(12)10--12-12-----
 B|----------------------------------------------------------------------
Gb|----------------------------------------------------------------------
Db|----------------------------------------------------------------------

Db|-----------------------------B(full)-B(full)----B(1.5)--15(15)13--15--
Ab|--B(full)---------------10--13------15(15)13---15---------------------
 E|-12(12)---11----11--12------------------------------------------------
 B|----------------------------------------------------------------------
Gb|----------------------------------------------------------------------
Db|----------------------------------------------------------------------

Db|--15----15--15---15--15(15)13-14----x---B---10-----------10--B--------
Ab|---------------------------------15-x--13------13-10--B-----12(12)----
 E|-----------------------------------------------------12--------10-----
 B|------------------------------------------------------------------12--
Gb|----------------------------------------------------------------------
Db|----------------------------------------------------------------------

Db|---------B(.25)-------------------------------------------------------
Ab|-12-----10--------------P--P--------12----10-------------P--P------12-
 E|-12-----10------------13-12-10------12----10B(.5)------13-12-10----12-
 B|----12-----12-10---12----------12------12------12---------------12----
Gb|----------------------------------------------------------------------
Db|----------------------------------------------------------------------

Db|---------------------------------B----10---P--------10---P---B--
Ab|------------12----10------------13-------13-10--B------13-10-8--
 E|-12-10------12----10B(.5)----------------------12---------------
 B|-------12------12---------12-10---------------------------------
Gb|----------------------------------------------------------------
Db|----------------------------------------------------------------

Db|--------------------------15---15(15)--13----15----13----15---13----15
Ab|-10--B---P-------------------------------(15)--(15)--(15)--(15)---(15)
 E|----12(12)10---12-10--------------------------------------------------
 B|---------------------12-----------------------------------------------
Gb|----------------------------------------------------------------------
Db|----------------------------------------------------------------------

Db|-15(15)-13-----------13-10-13-10-------13-10-13-10-------13-10-13-10-----
Ab|--------------15----------------13-10-------------13-10-------------13-10
 E|-------------------------------------------------------------------------
 B|-------------------------------------------------------------------------
Gb|-------------------------------------------------------------------------
Db|-------------------------------------------------------------------------

Db|-13-10-13-10-------15-13-15-13-------15-13-15-13-------15-13-15-13------
Ab|------------13-10-------------15-13-------------15-13-------------15-13-
 E|------------------------------------------------------------------------
 B|------------------------------------------------------------------------
Gb|------------------------------------------------------------------------
Db|------------------------------------------------------------------------

Db|-15-13-15-13-------17-15-17-15-------17-15-17-15-------17-15-17-15------
Ab|------------15-13-------------18-15-------------18-15-------------18-15-
 E|------------------------------------------------------------------------
 B|------------------------------------------------------------------------
Gb|------------------------------------------------------------------------
Db|------------------------------------------------------------------------

Db|-17-15-17-15-------18-15-13--18-15-13--18-15-13--18-15-13--20-17-15---
Ab|------------18-15----------15--------15--------15--------15--------17-
 E|----------------------------------------------------------------------
 B|----------------------------------------------------------------------
Gb|----------------------------------------------------------------------
Db|----------------------------------------------------------------------

Db|-20-17-15--20-17-15--20-17-15--20---(20)\-----------------------------
Ab|---------17--------17--------17---------------------------------------
 E|----------------------------------------------------------------------
 B|----------------------------------------------------------------------
Gb|----------------------------------------------------------------------
Db|----------------------------------------------------------------------

Db|----------------------------------------------------/15\-------------
Ab|---(7)---8\7--8--(8)\7------------------------------/15\(SHAKE SLIDE)
 E|--5/7-------------------7-----\5--(5)/10------9/12-------------------
 B|--5/7----------------------7--\5--(5)/10------9/12-------------------
Gb|---------------------------------------------------------------------
Db|---------------------------------------------------------------------
Composição de John Purdell / Mike Inez / Ozzy Osbourne / Randy Castillo / Zakk Wylde
Colaboração e revisão:
  • Vilinha
29.590 exibições
    • ½ Tom
    • A
    • Bb
    • B
    • C
    • Db
    • D
    • Eb
    • E
    • F
    • F#
    • G
    • Ab
  • Adicionar à lista

    0 comentários

    Ver todos os comentários

    Conseguiu tocar?

    4 Tocaram 4 Ainda não

    Grave um vídeo tocando No More Tears e nos envie!

    00:00 / 00:00
    outros vídeos desta música
    repetir qualidade Automático
    Outros vídeos desta música
    00:00 / 00:00
    Automático

    Cifra Club Pro

    Aproveite o Cifra Club com benefícios exclusivos e sem anúncios
    Cifra Club Pro
    Aproveite o Cifra Club com benefícios exclusivos e sem anúncios
    OK