Cifra Club

Aprenda

Shot in The Dark

Ozzy Osbourne

Cifra: Principal (violão e guitarra)
tom: G
  intro

E|-----------------------------------------------------|
B|--<12>----<7>----<5>b7----r--<5>---------------------|
G|------------------------------------<3>b5----r--b7--r|
D|-----------------------------------------------------|
A|-----------------------------------------------------|
E|-----------------------------------------------------|



  intro rhythm

E||---------------------------------------||
B||*--3----------------2-----------------*||
G||---4----------------2------------------||
D||---4----------------2------------------||
A||*--2--2--0-------0--0--2--0-----0--2--*||
E||--------------2--------------2---------||



E|----------------------------------------------------|
B|----------------------------------------------------|
G|--7--------------6----------4-----------------------|
D|--5--5--5--5--5--5----7--4--5b--5----------------7~~|
A|-----------------------------------7-------5--7-----|
E|--------------------------------------7-------------|
Composição de Ozzy Osbourne / Phil Soussan
21.946 exibições
    • ½ Tom
    • A
    • Bb
    • B
    • C
    • Db
    • D
    • Eb
    • E
    • F
    • F#
    • G
    • Ab
  • Adicionar à lista

    0 comentários

    Ver todos os comentários

    Conseguiu tocar?

    0 Tocaram 1 Ainda não

    Grave um vídeo tocando Shot in The Dark e nos envie!

    00:00 / 00:00
    outros vídeos desta música
    repetir qualidade Automático
    Outros vídeos desta música
    00:00 / 00:00
    Automático

    Cifra Club Pro

    Aproveite o Cifra Club com benefícios exclusivos e sem anúncios
    Cifra Club Pro
    Aproveite o Cifra Club com benefícios exclusivos e sem anúncios
    OK