Cifra Club

Sua Cara (feat. Anitta & Major Lazer)

Pabllo Vittar

Cifra: Principal (violão e guitarra)
Tom: C
[Intro] A5

[Solo Intro]

Parte 1

E|-8p7----8p7------------7---8p7----8p7------------7--|
B|-----10-----10----8-10---------10-----10----8-10----|
G|----------------9-------------------------9---------|
D|----------------------------------------------------|
A|----------------------------------------------------|
E|----------------------------------------------------|

Parte 2

E|-8p7----8p7------------7--------7-8p7-----------7---|
B|-----10-----10----8-10-------10-------10---8-10-----|
[|----------------9----------9-------------9----------|
D|----------------------------------------------------|
A|----------------------------------------------------|
E|----------------------------------------------------|

[Primeira Parte]

A5
   Você prepara, mas não dispara
Você repara, mas não encara
Se acha o cara, mas não me para
Tá cheio de maldade, mas não me encara

Você já tá querendo e eu também
Mas é cheio de história e de porém
Virou covarde, tô com vontade
Mas você tá demorando uma eternidade

[Pré-refrão]

A5              G5
   Se você não vem
          F5      A5
Eu vou botar pressão
                G5
Não vou te esperar
            F5   A5
Tô cheia de op__ção
               G5        F5     A5
Eu não sou mulher de aturar sermão

Me encara, se prepara

Que eu vou jogar bem na sua cara


[Refrão]

A5
Bem na sua cara
Eu vou rebolar bem na sua cara
Bem na sua cara
Hoje eu vou jogar bem na sua cara

[Solo Refrão]

Parte 1

E|------7-8p7-----------7-------7-8p7-----------7-----|
B|---10-------10---8-10------10-------10---8-10-------|
G|-9-------------9---------9-------------9------------|
D|----------------------------------------------------|
A|----------------------------------------------------|
E|----------------------------------------------------|

Parte 2

E|-12-8p7----8p7-----------7-12-8p7----8p7----------7-|
B|--------10-----10---8-10----------10----10---8-10---|
G|------------------9------------------------9--------|
D|----------------------------------------------------|
A|----------------------------------------------------|
E|----------------------------------------------------|

Parte 3

E|-12-8p7----8p7-----------7-------7-8p7-----------7--|
B|--------10-----10---8-10------10-------10---8-10----|
G|------------------9---------9-------------9---------|
D|----------------------------------------------------|
A|----------------------------------------------------|
E|----------------------------------------------------|

[Segunda Parte]

A5
Cheguei
Tô preparada pra atacar
Quando o grave bater, eu vou quicar
Na sua cara vou jogar e rebolar

[Terceira Parte]

       A5
Eu tô linda, livre, leve e solta
 G5           F5
Doida pra beijar na boca
 A5
Linda, livre, leve e solta
 G5           F5
Doida pra beijar na boca
 A5
Linda, livre, leve e solta
 G5           F5
Doida pra beijar na boca
 A5
Linda, livre, leve e solta

Que eu vou jogar bem na sua cara

[Refrão]

A5
   Bem na sua cara
Eu vou rebolar bem na sua cara
Bem na sua cara
Hoje eu vou jogar bem na sua cara

[Quarta Parte]

A5
   Você prepara, mas não dispara
Bem na sua cara
Você repara, mas não encara
Bem na sua cara
Se acha o cara, mas não me para
Bem na sua cara
Se acha o cara, mas não me para
Bem na sua cara

[Pré-refrão]

A5              G5
   Se você não vem
          F5      A5
Eu vou botar pressão
                G5
Não vou te esperar
            F5   A5
Tô cheia de op__ção
               G5        F5     A5
Eu não sou mulher de aturar sermão

Me encara, se prepara

Que eu vou jogar bem na sua cara
exibições 34.991
Acordes para:

    0 comentários

    mostrar mais comentários

    Conseguiu tocar?

    2 tocaram 0 ainda não

    Grave um vídeo tocando Sua Cara (feat. Anitta & Major Lazer) e mande pra gente!

    00:00 / 00:00
    outros vídeos desta música
    repetir qualidade Automático
    Outros vídeos desta música
    00:00 / 00:00
    Automático
    Capítulos
    • Tocando a música
    • Apresentação / Equipamentos
    • Acordes da Introdução e Primeira Parte
    • Tocando Introdução e Primeira Parte
    • Ritmo principal
    • Acordes Pré-refrão
    • Tocando Pré-Refrão
    • Ritmo Pré-refrão
    • Dicas Refrão
    • Tocando Refrão
    • Dicas Segunda Parte
    • Tocando Segunda Parte
    • Dicas Terceira Parte
    • Tocando Terceira Parte
    • Dicas dos solos
    • Tocando Solo Introdução
    • Solo Introdução - Parte 1 de 2
    • Solo Introdução - Parte 2 de 2
    • Dicas Solo 2 (Refrão)
    • Tocando Solo 2 (Refrão)
    • Solo 2 (Refrão) - Parte 1 de 3
    • Solo 2 (Refrão) - Parte 2 de 3
    • Solo 2 (Refrão) - Parte 3 de 3
    • Encerramento
    OK