Cifra Club

Aprenda

Ela Ligou

Pablo

Cifra: Completa (violão e guitarra)
tom: F
[Intro]  Bb  C  F  Bb

E|-------------------------------------------------------|
B|-------------------------------------------------------|
G|-------------5/7-5----------------5---5-5/7------------|
D|-------------------8-7/5--5-7-7/8---7------------------|
A|-------------------------------------------8-----------|
E|--4/6\4-3----------------------------------------------|

F                       Dm
Ela ligou, ela ligou, ela ligou
Bb                   C
Disfarçou, fez que ligou errado
F                   Dm
Mas eu senti pelo tom da sua voz
Bb                      C
Tava arrependida e eu aqui largado

Bb         C
Brigamos por bobagem
Am      Dm
Ela surtou
Bb          G
Mas vou lhe perdoar 
G7                 C
Se ela me jurar calma amor

F                     Dm
Jura-me que vai voltar pra mim
Gm                   C
Jura-me que chora de saudade
Am                        Dm
Jura-me que ainda sou o seu bebê
Gm                 C                  F
Jura-me que morre de vontade de me ver

[Solo]  Bb  C  F  Dm  C

E|------------------------------4h5p4------------------------------------|
B|----------------------------6------6------6----------------------------|
G|--5/7-5----------------5--5---------5-5h7---7-5------------------------|
D|--------8-7/5--5-7-7/8--------------------------7-5-3------------------|
A|-----------------------------------------------------6~-5-3--3-3-3-----|
E|-----------------------------------------------------------------------|

F                       Dm
Ela ligou, ela ligou, ela ligou
Bb                   C
Disfarçou, fez que ligou errado
F                   Dm
Mas eu senti pelo tom da sua voz
Bb                      C
Tava arrependida e eu aqui largado

Bb         C
Brigamos por bobagem
Am      Dm
Ela surtou
Bb          G
Mas vou lhe perdoar 
G7                 C
Se ela me jurar calma amor

F                     Dm
Jura-me que vai voltar pra mim
Gm                   C
Jura-me que chora de saudade
Am                        Dm
Jura-me que ainda sou o seu bebê
Gm                 C                F    C
Jura-me que morre de vontade de me ver

F                      Dm
Jura-me que vai voltar pra mim
Gm                  C
Jura-me que chora de saudade
Am                        Dm
Jura-me que ainda sou o seu bebê
Gm                C                  F  Dm
Jura-me que morre de vontade de me ver
Gm                C                  F
Jura-me que morre de vontade de me ver
Compositor não encontrado.
Colaboração e revisão:
  • Márcio Alves
459 exibições
    • ½ Tom
    • A
    • Bb
    • B
    • C
    • Db
    • D
    • Eb
    • E
    • F
    • F#
    • G
    • Ab
  • Adicionar à lista

    0 comentários

    Ver todos os comentários

    Conseguiu tocar?

    0 Tocaram 0 Ainda não

    Grave um vídeo tocando Ela Ligou e nos envie!

    00:00 / 00:00
    Outros vídeos desta música
    Repetir Qualidade Automático
    Outros vídeos desta música
    00:00 / 00:00
    Automático

    Cifra Club Pro

    Aproveite o Cifra Club com benefícios exclusivos e sem anúncios
    Cifra Club Pro
    Aproveite o Cifra Club com benefícios exclusivos e sem anúncios
    OK