Cifra Club

Amor Eterno

Pablo & Grupo Arrocha

Cifra: Principal (violão e guitarra)
tom: C#m
C#m                        B          A
Qual de nós perdeu mais tempo na vida?
C#m                        B           A
Qual de nós deixou primeiro de sonhar?
          E
Quero te dizer amor
        B
Dessa solidão
                C#m
Que existe em nós
A                                       E
Solidão de palavras vazias em nome do amor
                B
Em nome do que foi
                C#m
E não do que será
A                       B       C#m
Esse amor que já não pede mais nada
A               B                 E
Que se apega a razão pra não ter fim
        A           B
Não se acende um olhar
     A          B
A cada gesto seu
E                  
É eterno pra quem ama
       A                         
Bem maior que a própria chama
A               B
Não precisa de calor
A                       B
Mas eu sei que esse amor
E                  
É eterno pra quem ama
      A
Bem maior que a própria chama
A                       B       C#m
Esse amor que já não pede mais nada

Esse amor que já não pede mais nada

E|------------------------------------------|
B|------------------------------------------|
G|-6-8-9---9-9-9-9/11-9-8-6p8-6-------------|
D|------------------------------------------|
A|------------------------------------------|
E|------------------------------------------|

Que se apega a razão pra não ter fim

E|------------------------------------------|
B|------------------------------------------|
G|-6-8-9---9-9-9-9/11-9-11-14-13------------|
D|------------------------------------------|
A|------------------------------------------|
E|------------------------------------------|

Não se assende um olhar

E|------------------------------------------|
B|------------------------------------------|
G|-11-13-14-13-11/9-9-11--------------------|
D|------------------------------------------|
A|------------------------------------------|
E|------------------------------------------|

A cada gesto seu

E|------------------------------------------|
B|------------------------------------------|
G|-11-14-13-11/9-11-------------------------|
D|------------------------------------------|
A|------------------------------------------|
E|------------------------------------------|

Esse amor que já não pede mais nada

E|------------------------------------------|
B|------------------------------------------|
G|-6-8-9---9-9-9-9/11-9-8-6p8-6-------------|
D|------------------------------------------|
A|------------------------------------------|
E|------------------------------------------|
00:00 / 00:00
Outros vídeos desta música
Repetir
Outros vídeos desta música
Composição de Pablo / Grupo Arrocha
Colaboração e revisão:
  • Enf. Walber
1.447 exibições
    • ½ Tom
    • Am
    • Bbm
    • Bm
    • Cm
    • C#m
    • Dm
    • Ebm
    • Em
    • Fm
    • F#m
    • Gm
    • G#m
  • Adicionar à lista

    0 comentários

    Ver todos os comentários

    Entre para oCifra Club PRO

    Tenha acesso a benefícios exclusivos no App e no Site

    • Chega de anúncios

    • Prioridade de compra em lançamentos

    • Mais recursos no app do Afinador

    • Atendimento Prioritário

    • Descontos nos produtos Cifra Club

    • Ajude a produzir mais conteúdo

    00:00 / 00:00

    Cifra Club Pro

    Aproveite o Cifra Club com benefícios exclusivos e sem anúncios
    Cifra Club Pro
    Aproveite o Cifra Club com benefícios exclusivos e sem anúncios
    OK