Cifra Club

Aprenda

Entra Na Minha Casa

Padre Marcelo Rossi

Cifra: Principal (violão e guitarra)
Quer fazer aulas de música com a gente? Responda essas perguntas
e nos ajude nesse projeto! →
tom: G
Intro 2x: G5  D5  E5  C5  B5

Na segunda vez, tocar:
E|--3/5-5-5-6--8-8-------5/8-8-8-13--12-10-8----10-8-10-8-10-8-10p8------10-8-10-8-10/12b14r12--|
B|------------------7-----------------------------------------------10--------------------------|
G|----------------------------------------------------------------------------------------------|
D|----------------------------------------------------------------------------------------------|
A|----------------------------------------------------------------------------------------------|
E|----------------------------------------------------------------------------------------------|

G            D
Como Zaqueu
           Em
Eu quero subir
       C     Bm         G
O mais alto que eu puder
            D
Só pra te ver
            Em
Olhar para ti
      C            Bm         G
E chamar sua atenção para mim
                C        G
Eu preciso de ti senhor
                C       Bm
Eu preciso de ti, oh pai
                 Am
Sou pequeno demais
    G          C
Me dá a tua paz
                      D
Largo tudo pra ti seguir


G                    D
Entra na minha casa,
                 Em
Entra na minha vida
                       C
Mexe com minha estrutura
       D           G
Sara todas as feridas
                      D
Me ensina a ter santidade
                      Em
Quero amar somente a ti
                               C
Porque o senhor é o meu bem maior
D
Faz o milagre em mim...


( G  D  Em  C  D )


G            D
Como Zaqueu
           Em
Eu quero subir
      C     Bm         G
O mais alto que eu puder
            D
Só pra te ver
             Em
Olhar para ti
      C            Bm         G
E chamar sua atenção para mim
                C        G
Eu preciso de ti senhor
               C       Bm
Eu preciso de ti, oh pai
                Am
Sou pequeno demais
    G          C
Me dá a tua paz
                     D
Largo tudo pra ti seguir


G                    D
Entra na minha casa,
                 Em
Entra na minha vida
                       C
Mexe com minha estrutura
       D           G
Sara todas as feridas
                      D
Me ensina a ter santidade
                      Em
Quero amar somente a ti
                               C
Porque o senhor é o meu bem maior
                    G
Faz o milagre em mim... (2x)


Final:
E|--3/5-5-5-6--8-8-------|
B|------------------7~---|
G|-----------------------|
D|-----------------------|
A|-----------------------|
E|-----------------------|
Compositor não encontrado.
Colaboração e revisão:
  • Richard Souza
  • Bruno Damacena
61.076 exibições
    • ½ Tom
    • A
    • Bb
    • B
    • C
    • Db
    • D
    • Eb
    • E
    • F
    • F#
    • G
    • Ab
  • Adicionar à lista

    0 comentários

    Ver todos os comentários
    00:00 / 00:00
    Outros vídeos desta música
    Repetir Qualidade Automático
    Outros vídeos desta música
    00:00 / 00:00
    Automático

    Cifra Club Pro

    Aproveite o Cifra Club com benefícios exclusivos e sem anúncios
    Cifra Club Pro
    Aproveite o Cifra Club com benefícios exclusivos e sem anúncios
    OK