Cifra Club

Maria de Nazaré

Padre Zezinho

Cifra: Principal
exibições 119.257
Tom: D
[Intro]

      D            Em       A7           D
E|-------2----|-------0----|-------0----|-------2----|
B|-----3---3--|-----0---0--|-----2---2--|-----3---3--|
G|---2-------2|---0-------0|---0-------0|---2-------2|  
D|-0----------|------------|------------|-0----------|
A|------------|------------|-0----------|------------|
E|------------|-0----------|------------|------------|

(Às vezes eu paro e fico a pensar...)
      D            G        A7           D
E|-------2----|-------3----|-------0----|-------2----|
B|-----1---1--|-----3---3--|-----2---2--|-----3---3--|
G|---2-------2|---0-------0|---0-------0|---2-------2|
D|-0----------|------------|------------|-0----------|
A|------------|------------|-0----------|------------|
E|------------|-3----------|------------|------------|

E|---9-9-9-7-5-10----7-7-7-5-4-5---------------------|  
B|-5---------------5---------------------------------|
G|---------------------------------------------------|
D|---------------------------------------------------|
A|---------------------------------------------------|
E|---------------------------------------------------|

E|----14-14-14-14-16-14-12-11-12-----12-12-12-12-14-12-11-9-11-|
B|-12-----------------------------10---------------------------|
G|-------------------------------------------------------------|
D|-------------------------------------------------------------|
A|-------------------------------------------------------------|
E|-------------------------------------------------------------|

E|---11-11-11-11-12-11-9-7-9-|-7-6-6-6--------7-6-6-6----------|
B|-9-------------------------|---------9-8-7-------- --9-11-12-|
G|-------------------------------------------------------------|
D|-------------------------------------------------------------|
A|-------------------------------------------------------------|
E|-------------------------------------------------------------|

E|----------------------------------------------------------------------|
B|-12-14-16-14-16-17--11-12-14-12-14-16--12-14-16-14-16-17--11-16-14-12-|
G|----------------------------------------------------------------------|
D|----------------------------------------------------------------------|
A|----------------------------------------------------------------------|
E|----------------------------------------------------------------------|
Acordes para:
    Colaboração e revisão:
    • Marcos Paulo
    • Anamara sIMAO
    • Herbert Resende

    0 comentários

      mostrar mais comentários

      Conseguiu tocar?

      3tocaram1ainda não

      Grave um vídeo tocando Maria de Nazaré e mande pra gente!

      00:00 / 00:00
      outros vídeos desta música
      repetirqualidadeautomática
      Outro vídeos desta música
        00:00 / 00:00
        automática
        OK