Enviar cifraEntrar

Nova Geração

Padre Zezinho

Cifra: Principal
exibições 44.261
Tom: F
Dm                                        A7               Dm
Eu venho do sul e do norte, do oeste e do leste, de todo lugar
                                        A7              Dm
Estrada da vida eu percorro levando socorro a quem precisar
   Gm                                                    Dm
Assunto de paz é meu forte Eu cruzo montanhas e vou aprender
                     Gm                     Dm           A7         Dm
O mundo não me satisfaz o que eu quero é a paz, o que eu quero é viver.

    Gm              Dm        Gm      Dm        A7        Dm
No peito eu levo uma cruz, no meu coração o que disse Jesus
     Gm              Dm       Gm      Dm        A7       Dm
No peito eu levo uma cruz, no meu coração o que disse Jesus

Dm                                        A7            Dm
Eu sei que não tenho a idade da maturidade de quem já viveu
                                          A7                    Dm
Mas sei que já tenho a idade de ver a verdade o que eu quero ser eu
    Gm                                                      Dm
O mundo ferido e cansado de um negro passado de guerras sem fim
                   Gm                   Dm      A7         Dm
Tem medo da bomba que fez, a fé que desfez mas aponta pra mim

  Dm                                         A7            Dm
Eu venho trazer meu recado, não tenho passado mas sei entender
                                    A7               Dm
Um jovem foi crucificado por ter ensinado a gente viver
     Gm                                                              Dm
Eu grito ao mundo descrente que eu quero ser gente, que eu creio na cruz
                       Gm                 Dm        A7    Dm
Eu creio na força do jovem que segue o caminho do Cristo Jesus

Solo 1:

E|-------------------------------------------------------------------------------------------------------------
B|-15-14h15p14h15p14h15p14-15---14-14h15p14h15p14h15p14--15-14-15--14h15p14h15p14h15p14-15---14----------------
G|-------------------------------------------------------------------------------------------------------------
D|-------------------------------------------------------------------------------------------------------------
A|-------------------------------------------------------------------------------------------------------------
E|-------------------------------------------------------------------------------------------------------------


E|-------------------------------------------------------------------------------------------------------------
B|-14h15p14h15p14h15p14--15-14-15--15-17-15-14-15-14-----------------------------------------------------------
G|---------------------------------------------------15-14-12-14-12---------------------14---------------------
D|-----------------------------------------------------------------15-14-12--12-14-15-12-----------------------
A|-------------------------------------------------------------------------------------------------------------
E|-------------------------------------------------------------------------------------------------------------


Solo 2:

E|---------------------------------17-15-17-15-13--------------------------------------------------------------
B|---15-14-15--14-15-17-15-14-15-------------------------------------------------------------------------------
G|-14----------------------------------------------------------------------------------------------------------
D|-------------------------------------------------------------------------------------------------------------
A|-------------------------------------------------------------------------------------------------------------
E|-------------------------------------------------------------------------------------------------------------
  • 1
  • 2
  • 3
  • 4
  • 5
  • 6
  • 7
  • 8
  • 9
  • 10
  • 11
  • 12
    Acordes para:
      Composição: Pe. ZezinhoColaboração e revisão:

      0 comentários

        mostrar mais comentários

        Conseguiu tocar?

        8tocaram0ainda não

        Grave um vídeo tocando Nova Geração e mande pra gente!

        00:00 / 00:00
        outros vídeos desta música
        repetirqualidadeautomática
        • automática
        Outro vídeos desta música
          00:00 / 00:00
          automática
          • automática
          Acordes para:violão e guitarra
          dificuldadeexibiçõescontribuições
          fecharplay/pause subir/descer velocidade
            acordes
            fechar
            OK
            Feedback