Cifra Club

Aprenda

Sonhadores da Paz

Padre Zezinho

Cifra: Principal (violão e guitarra)
Tom: B
[Intro] B  B/A  E/G# Em/G  B/F#  C#/F  
        B  F#7  B  F#7  B  F#7

     B  B/A     E/G# Em/G  B/F#    C#/F  B
E|-4-7-4-------4--------------------4-------|
B|-------7-5-7---5----5---------5-7---7-5-5-|
G|-----------------6----6---4-6-------------|
D|------------------------------------------|
A|------------------------------------------|
E|------------------------------------------|

   F#7  B    F#7  B      F#7
E|-4----------4-----------------------------|
B|---7-5-5------7-5-5-----------------------|
G|------------------------------------------|
D|------------------------------------------|
A|------------------------------------------|
E|------------------------------------------|

     B
Sonhadores da paz, fazedores da paz, construtores da paz
     B
Sonhadores da paz, fazedores da paz, construtores da paz
B                B/A       E/G#
  Cristãos de um tempo diferente
Em/G  B/F#  C#/F           F#7
Onde a gente tem que lutar
    B     B/A        E/G#  Em/G B/F#
Se quer fazer alguma coisa pela paz
        F#7        B
A gente tem que lutar
F#7          B    F#7       B     F#7       B     F#7      B    F#7      
Tem que arriscar, tem que falar, tem que dançar, tem que levar o pão 
    B
E a paz
Composição de Padre Zezinho
Colaboração e revisão:
  • Valdemar Evangelista
  • Marcelo Cerdeiro
3.992 exibições
    • ½ Tom
    • A
    • Bb
    • B
    • C
    • Db
    • D
    • Eb
    • E
    • F
    • F#
    • G
    • Ab
  • Adicionar à lista

    0 comentários

    Mostrar mais comentários
    00:00 / 00:00
    outros vídeos desta música
    repetir qualidade Automático
    Outros vídeos desta música
    00:00 / 00:00
    Automático
    OK