Cifra Club

Aprenda

Dedication

Pain of Salvation

Tab de baixo: Principal
Já pensou em usar uma coleção de roupas do Cifra Club? Responda as perguntas abaixo e nos ajude nessa missão! →
(intro)
  Q=71
 7/8                                   4/4
  Gtr I
  Wx4          Q.    H      H    Q.      Q.    H    +E
|-----------|-/7----/9----|-----------|-/7----/9----(9)-|
|-----------|-------------|-9---------|-----------------|
|-----------|-------------|-----------|-----------------|
|-----------|-------------|-----------|-----------------|
|-----------|-------------|-----------|-----------------|
|-----------|-------------|-----------|-----------------|
 6/8
  E. E S E. E.    E. E. S E S S S   E. E S E. E S   E. E. E. S  E
|--------------||-----------------|---------------|----------------|
|--------------||-----------------|---------------|----------------|
|----7-7----7--||----7--------7---|----7-7----7-7-|----7-----------|
|-0------0-----||-0-----0-0-----7-|-0------0------|-0-----0--0-/7--|
|--------------||-----------------|---------------|----------------|
|--------------||-----------------|---------------|----------------|

  E. S S S E. E S   E. E S E S S S S   S S S E. E. E.   H.
|-----------------|------------------|----------------|-------|
|-----------------|------------------|----------------|-------|
|----7-7-7----7-7-|----7-7---7-7-7-7-|-------7-----7--|-------|
|-0--------0------|-0------0---------|-0-0-0----0-----|-------|
|-----------------|------------------|----------------|-------|
|-----------------|------------------|----------------|-3-----|

 (verse 1)
 4/4          15/16         17/16
  Wx2          H..       S    E. e E. e Q..
|------------|-------------|-/5--4-2----------|
|------------|-------------|----------5-4-----|
|------------|-------------|------------------|
|------------|-------------|------------------|
|------------|-------------|------------------|
|------------|-------------|------------------|

 7/8         17/16
  H..         Q..   H    +E    Q..   H    +S  S
|-----------|----------------|---------------------|
|-----------|----------------|---------------------|
|-----------|----------------|---------------------|
|-----------|-5-----0----(0)-|-5-----0----(0)------|
|-0---------|----------------|----------------0----|
|-----------|----------------|---------------------|

 (verse 2)
 4/4                   15/16           17/16              7/8
  W          W          H..       +S     E. e E. e Q..     H..
|----------|----------|---------------|-/5--4-2----------|--------|
|----------|----------|---------------|----------5-4-----|--------|
|----------|----------|---------------|------------------|--------|
|-3--------|-2--------|-0---------(0)-|------------------|--------|
|----------|----------|---------------|------------------|-0------|
|----------|----------|---------------|------------------|--------|

 (interlúdio 1)
 17/16
  Q..   H    +E    Q..   H    +E
|----------------|----------------|
|----------------|----------------|
|----------------|----------------|
|-5-----0----(0)-|-5-----0----(0)-|
|----------------|----------------|
|----------------|----------------|

  Q..   Q  +S  E E S   Q.   S H    +S  S
|--------------------|-------------------|
|--------------------|-------------------|
|--------------------|-------------------|
|-5-----0--(0)-0-0---|-5----x-0----(0)-x-|
|------------------0-|-------------------|
|--------------------|-------------------|

 (bridge)
 7/8         4/4
  Wx6         W
|-----------|------|
|-----------|------|
|-----------|------|
|-----------|------|
|-----------|------|
|-----------|------|

   (pre-refrão)
   6/8
    S S S S S S S S S S S S    S S S S S S S S S S S S
||--------------------------||-------------------------|
||o-------------------------||-------------------------|
||--------7-7-7-------7-7-7-||-------7-7-7-----7-7-7---|
||--------------------------||-----------------------7-|
||o-5-5-5-------5-5-5-------||-5-5-5-------5-5---------|
||--------------------------||-------------------------|

                           1.                         2.
  S S S S S S S S S S S S   S S S S S S S S S S E      H.
|-------------------------|-------------------------||-------|
|-------------------------|------------------------o||-------|
|-------7-7-7-------7-7-7-|-------7-7-7-------------||-------|
|-------------------------|---------------------7\--||-5-----|
|-5-5-5-------5-5-5-------|-5-5-5-------5-5-5-5----o||-------|
|-------------------------|-------------------------||-------|

 (refrão)
 7/8
  Q.   H      H    +S  S S S E    Q.   H      Q  +S  S S Q..
|-----------|-------------------|-----------|------------------|
|-----------|-------------------|-----------|------------7\----|
|-----------|----------7-7-7-7\-|-----------|--------5-7-------|
|-3----2----|-0----(0)----------|-3----2----|-0--(0)-----------|
|-----------|-------------------|-----------|------------------|
|-----------|-------------------|-----------|------------------|

                             4/4
  Q.   H      H.      +S  S   Q.   H    +E
|-----------|---------------|---------------|
|-----------|---------------|---------------|
|-----------|---------------|---------------|
|-3----2----|-0-------(0)-0-|-3----2----(2)-|
|-----------|---------------|---------------|
|-----------|---------------|---------------|

   Breakdown
   6/8
    S S S S S S S S S S S S   S S S S S S S S S S S S
||--------------------------|-------------------------|
||o-------7-7-7-------7-7-7-|-------7-7-7-----7-7-7---|
||--------------------------|-----------------------7-|
||--5-5-5-------5-5-5-------|-5-5-5-------5-5---------|
||o-------------------------|-------------------------|
||--------------------------|-------------------------|

                           1.                      2.
  S S S S S S S S S S S S   S S S S S S S S E E     S S S S S S S S S S S S
|-------------------------|----------------------||----------------------------|
|-------7-7-7-------7-7-7-|-------7-7-7---------o||-------7-7-7-------7-7-7----|
|-------------------------|-----------------7-7--||----------------------------|
|-5-5-5-------5-5-5-------|-5-5-5-------5-5------||-5-5-5-------5-5-5----------|
|-------------------------|---------------------o||----------------------------|
|-------------------------|----------------------||----------------------------|

 (interlúdio 2)
 4/4
   H..       +S  S     H..       S  S
|------------------||-----------------|
|-/5---------(5)-5-||-/4---------4h/5-|
|------------------||-----------------|
|------------------||-----------------|
|------------------||-----------------|
|------------------||-----------------|

 15/16           17/16              7/8
  H..       +S     E. e E. e Q..     H..
|---------------|-/5--4-2----------|--------|
|---------------|----------5-4-----|--------|
|-7---------(7)-|------------------|--------|
|---------------|------------------|--------|
|---------------|------------------|-0------|
|---------------|------------------|--------|

 17/16
  Q..   H    +E    Q..   H    +E    Q  +S  E  H    +E    Q..   H    +E
|----------------|----------------|--------------------|----------------|
|-7--------------|----------------|--------------------|----------------|
|-------7----(7)-|----------------|--------------------|----------------|
|----------------|-5-----0----(0)-|-5--(5)-7\-0----(0)-|-5-----0----(0)-|
|----------------|----------------|--------------------|----------------|
|----------------|----------------|--------------------|----------------|

 (verso 3)
 4/4                   15/16         9/8
  W          W          H..       S   H.      Q.
|----------|----------|-------------|--------------|
|----------|----------|-------------|--------------|
|----------|----------|-------------|--------------|
|----------|----------|-------------|--------------|
|----------|----------|-------------|--------------|
|-1--------|----------|-------------|--------------|

                                     H.=H   Q=50
 4/4          15/16         9/8            2/4
  Wx2          H..       S   H.      Q.     H
|------------|-------------|--------------|------*|
|------------|-------------|--------------|------*|
|------------|-------------|--------------|------*|
|------------|-------------|--------------|------*|
|------------|-------------|--------------|------*|
|------------|-------------|--------------|------*|
Colaboração e revisão:
  • Paulo Ricardo
144 exibições

0 comentários

Ver todos os comentários

Conseguiu tocar?

0 Tocaram 0 Ainda não

Grave um vídeo tocando Dedication e nos envie!

00:00 / 00:00
outros vídeos desta música
repetir qualidade Automático
Outros vídeos desta música
00:00 / 00:00
Automático

Cifra Club Pro

Aproveite o Cifra Club com benefícios exclusivos e sem anúncios
Cifra Club Pro
Aproveite o Cifra Club com benefícios exclusivos e sem anúncios
OK