Cifra Club

Aprenda

Deus Nova

Pain of Salvation

Tab de baixo: Principal
(Intro)
     W                   W                   W                 
C||-------------------|-------------------|-------------------|
G||-------------------|-------------------|-------------------|
D||-------------------|-------------------|-------------------|
A||-------------------|-------------------|-------------------|
E||-------------------|-------------------|-------------------|
B||--5----------------|--5----------------|--5----------------|

  W                   W                   W                   W                 
-------------------|-------------------|-------------------|-------------------|
-------------------|-------------------|-------------------|-------------------|
-------------------|-------------------|-------------------|-------------------|
-------------------|-------------------|-------------------|-------------------|
-------------------|-------------------|-------------------|--5----------------|
--5----------------|--5----------------|--L----------------|-------------------|

  W                   W                   W                   W                 
-------------------|-------------------|-------------------|-------------------|
-------------------|-------------------|-------------------|-------------------|
-------------------|-------------------|-------------------|-------------------|
-------------------|-------------------|-------------------|-------------------|
--L----------------|-------------------|-------------------|--5----------------|
-------------------|--5----------------|--L----------------|-------------------|

  W                   W                   W                   W                 
-------------------|-------------------|-------------------|-------------------|
-------------------|-------------------|-------------------|-------------------|
-------------------|-------------------|-------------------|-------------------|
-------------------|-------------------|-------------------|-------------------|
--L----------------|-------------------|-------------------|--8----------------|
-------------------|--8----------------|--8----------------|-------------------|

  W                   W                   W                   W                 
-------------------|-------------------|-------------------|-------------------|
-------------------|-------------------|-------------------|-------------------|
-------------------|-------------------|-------------------|-------------------|
-------------------|-------------------|-------------------|-------------------|
--8----------------|-------------------|-------------------|--8----------------|
-------------------|--8----------------|--8----------------|-------------------|

  W                   E  E  E  E  E  S E  S E  Q     
-------------------|--------------------------------|
-------------------|--------------------------------|
-------------------|--------------------------------|
-------------------|--------------------------------|
--8----------------|--------------------------------|
-------------------|--3--1--3--1--3----4----1-------|

                                                              |--3--|   
  E  E  E  E  E  S E  S E  S E  S    E  E  E  E  E  S E  S E  E  E  E   
----------------------------------|------------------------------------|
----------------------------------|------------------------------------|
----------------------------------|------------------------------------|
----------------------------------|------------------------------------|
----------------------------------|------------------------------------|
--3--1--3--1--3----4----3----2----|--3--1--3--1--3----4----1--2--2--2--|

  E  E  E  E  E.  E.  E.  E.  E.  E.  E.     E  E  E  E  E  S E  S E  Q     
------------------------------------------|--------------------------------|
------------------------------------------|--------------------------------|
------------------------------------------|--------------------------------|
------------------------------------------|--------------------------------|
------------------------------------------|--------------------------------|
--3--1--3--1--3---4---1---2---3---4---5---|--3--1--3--1--3----4----1-------|

                                                              |--3--|   
  E  E  E  E  E  S E  S E  S E  S    E  E  E  E  E  S E  S E  E  E  E   
----------------------------------|------------------------------------|
----------------------------------|------------------------------------|
----------------------------------|------------------------------------|
----------------------------------|------------------------------------|
----------------------------------|------------------------------------|
--3--1--3--1--3----4----3----2----|--3--1--3--1--3----4----1--2--2--2--|

                                                        |----3----|     
  E  E  E  E  E.  E.  E.  E.  E.  E.  E.     Q    E  E  Q    Q    Q     
------------------------------------------|----------------------------|
------------------------------------------|----------------------------|
------------------------------------------|----------------------------|
------------------------------------------|----------------------------|
------------------------------------------|----------------------------|
--3--1--3--1--3---4---1---2---3---4---5---|--6----6--4--6----4----6----|

                                      |----3----|                              
  Q    E  E  E  E  Q       Q    E  E  Q    Q    Q       Q    E  E  E  E  Q     
------------------------|----------------------------|------------------------|
------------------------|----------------------------|------------------------|
------------------------|----------------------------|------------------------|
------------------------|----------------------------|------------------------|
------------------------|----------------------------|------------------------|
--L----6--6--6--4--6----|--6----6--4--6----4----6----|--L----6--6--6--4--6----|

                   |--3--|                                    
  E  E  Q    E  E  E  E  E     E  E  E  E  E  S E  S E  Q     
----------------------------|--------------------------------|
----------------------------|--------------------------------|
----------------------------|--------------------------------|
----------------------------|--------------------------------|
----------------------------|--------------------------------|
--6--4--6----6--5--4--4--4--|--3--1--3--1--3----4----1-------|
                                                              |--3--|   
  E  E  E  E  E  S E  S E  S E  S    E  E  E  E  E  S E  S E  E  E  E   
----------------------------------|------------------------------------|
----------------------------------|------------------------------------|
----------------------------------|------------------------------------|
----------------------------------|------------------------------------|
----------------------------------|------------------------------------|
--3--1--3--1--3----4----3----2----|--3--1--3--1--3----4----1--2--2--2--|

  E  E  E  E  E.  E.  E.  E.  E.  E.  E.     E  E  E  E  E  S E  S E  Q     
------------------------------------------|--------------------------------|
------------------------------------------|--------------------------------|
------------------------------------------|--------------------------------|
------------------------------------------|--------------------------------|
------------------------------------------|--------------------------------|
--3--1--3--1--3---4---1---2---3---4---5---|--3--1--3--1--3----4----1-------|

                                                              |--3--|   
  E  E  E  E  E  S E  S E  S E  S    E  E  E  E  E  S E  S E  E  E  E   
----------------------------------|------------------------------------|
----------------------------------|------------------------------------|
----------------------------------|------------------------------------|
----------------------------------|------------------------------------|
----------------------------------|------------------------------------|
--3--1--3--1--3----4----3----2----|--3--1--3--1--3----4----1--2--2--2--|

                                                        |----3----|     
  E  E  E  E  E.  E.  E.  E.  E.  E.  E.     Q    E  E  Q    Q    Q     
------------------------------------------|----------------------------|
------------------------------------------|----------------------------|
------------------------------------------|----------------------------|
------------------------------------------|----------------------------|
------------------------------------------|----------------------------|
--3--1--3--1--3---4---1---2---3---4---5---|--6----6--4--6----4----6----|

                                      |----3----|                              
  Q    E  E  E  E  Q       Q    E  E  Q    Q    Q       Q    E  E  E  E  Q     
------------------------|----------------------------|------------------------|
------------------------|----------------------------|------------------------|
------------------------|----------------------------|------------------------|
------------------------|----------------------------|------------------------|
------------------------|----------------------------|------------------------|
--L----6--6--6--4--6----|--6----6--4--6----4----6----|--L----6--6--6--4--6----|

                   |--3--|                                    
  E  E  Q    E  E  E  E  E     E  E  E  E  E  S E  S E  Q     
----------------------------|--------------------------------|
----------------------------|--------------------------------|
----------------------------|--------------------------------|
----------------------------|--------------------------------|
----------------------------|--------------------------------|
--6--4--6----6--5--4--4--4--|--3--1--3--1--3--L-4--L-1--L----|

                                                              |--3--|   
  E  E  E  E  E  S E  S E  S E  S    E  E  E  E  E  S E  S E  E  E  E   
----------------------------------|------------------------------------|
----------------------------------|------------------------------------|
----------------------------------|------------------------------------|
----------------------------------|------------------------------------|
----------------------------------|------------------------------------|
--3--1--3--1--3--L-4--L-3--L-2--L-|--3--1--3--1--3--L-4--L-1--2--2--2--|

              |----3----|                                  
  E  E  E  E  Q    Q    Q       E.  E.  E.  E.  Q    Q     
-----------------------------|----------------------------|
-----------------------------|----------------------------|
-----------------------------|----------------------------|
-----------------------------|----------------------------|
-----------------------------|----------------------------|
--3--3--3--3--4----4----4----|--3---3---3---3---2----2----|

                              |--3--|                                    
  Q    S Q    S Q    S Q    S E  E  E     E  E  E  E  E  S E  S E  Q     
---------------------------------------|--------------------------------|
---------------------------------------|--------------------------------|
---------------------------------------|--------------------------------|
---------------------------------------|--------------------------------|
---------------------------------------|--------------------------------|
--1----L-1----L-1----L-1----L-1--1--1--|--3--1--3--1--3--L-4--L-1--L----|

                                                              |--3--|   
  E  E  E  E  E  S E  S E  S E  S    E  E  E  E  E  S E  S E  E  E  E   
----------------------------------|------------------------------------|
----------------------------------|------------------------------------|
----------------------------------|------------------------------------|
----------------------------------|------------------------------------|
----------------------------------|------------------------------------|
--3--1--3--1--3--L-4--L-3--L-2--L-|--3--1--3--1--3--L-4--L-1--2--2--2--|

              |----3----|                                  
  E  E  E  E  Q    Q    Q       E.  E.  E.  E.  Q    Q     
-----------------------------|----------------------------|
-----------------------------|----------------------------|
-----------------------------|----------------------------|
-----------------------------|----------------------------|
-----------------------------|----------------------------|
--3--3--3--3--4----4----4----|--3---3---3---3---2----2----|

                              |--3--|     ---  
  Q    S Q    S Q    S Q    S E  E  E          
---------------------------------------|-----||
---------------------------------------|-----||
---------------------------------------|-----||
---------------------------------------|-----||
---------------------------------------|-----||
--1----L-1----L-1----L-1----L-1--1--1--|-----||
Colaboração e revisão:
  • Paulo Ricardo
107 exibições

0 comentários

Ver todos os comentários

Conseguiu tocar?

0 Tocaram 0 Ainda não

Grave um vídeo tocando Deus Nova e nos envie!

00:00 / 00:00
outros vídeos desta música
repetir qualidade Automático
Outros vídeos desta música
00:00 / 00:00
Automático

Cifra Club Pro

Aproveite o Cifra Club com benefícios exclusivos e sem anúncios
Cifra Club Pro
Aproveite o Cifra Club com benefícios exclusivos e sem anúncios
OK