Cifra Club

Aprenda

Disco Queen

Pain of Salvation

Cifra: Principal (violão e guitarra)
tom: C
Versão Acústica                                                      

INTRO:
 
E||--------------------------|--------------------------|
B||--------------------------|--------------------------|
G||--7--7--7--7--7--7--7--7--|--7--7--7--7--7--7--7--7--|
D||--------------------------|--------------------------|
A||--5-----------------------|--------------------------|
E||--------------------------|--------------------------|
                                                      
--------------------------|--------------------------|
--------------------------|--------------------------|
--7--7--7--7--7--7--7--7--|--7--7--7--7--7--7--7--7--|
--------------------------|--------------------------|
--5-----------7-----------|--------------------------|
--------------------------|--------------------------|
                                                      
--------------------------|--------------------------|
--------------------------|--------------------------|
--7--7--7--7--7--7--7--7--|--7--7--7--7--7--7--7--7--|
--------------------------|--------------------------|
--7-----------8-----------|--------------------------|
--------------------------|--------------------------|
                                                                                
--------------------------|-------------------------|--------------------------|
--------------------------|-------------------------|--------------------------|
--7--7--7--7--7--7--7--7--|--7--7--7--7--7--7--7/---|-----7-----7-----7-----7--|
--------------------------|-------------------------|--------------------------|
--8-----------7-----------|--------------------5/---|--5-----5-----5-----5-----|
--------------------------|-------------------------|--------------------------|
                                                        
----------------------------|--------------------------|
----------------------------|--------------------------|
-----10-----10-----5-----5--|-----3-----3-----3-----3--|
----------------------------|--------------------------|
--8------8------3-----3-----|--1-----1-----1-----1-----|
----------------------------|--------------------------|
                                                      
--------------------------|--------------------------|
--------------------------|--------------------------|
--------------------------|-----7-----7-----7-----7--|
-----5-----5-----5--------|--------------------------|
--------------------1--3--|--5-----5-----5-----5-----|
--3-----3-----3-----------|--------------------------|
                                                        
----------------------------|--------------------------|
----------------------------|--------------------------|
-----10-----10-----5-----5--|-----3-----3-----3-----3--|
----------------------------|--------------------------|
--8------8------3-----3-----|--1-----1-----1-----1-----|
----------------------------|--------------------------|
                                                      
--------------------------|--------------------------|
--------------------------|--------------------------|
--------------------------|-----7-----7-----7-----7--|
-----5-----5-----5--------|--------------------------|
--------------------1--3--|--5-----5-----5-----5-----|
--3-----3-----3-----------|--------------------------|
                                                       
----------------------------|--------------------------|
----------------------------|--------------------------|
-----10-----10-----5-----5--|-----3-----3-----3-----3--|
----------------------------|--------------------------|
--8------8------3-----3-----|--1-----1-----1-----1-----|
----------------------------|--------------------------|
                                                      
--------------------------|--------------------------|
--------------------------|--------------------------|
--------------------------|-----7-----7-----7-----7--|
-----5-----5-----5--------|--------------------------|
--------------------1--3--|--5-----5-----5-----5-----|
--3-----3-----3-----------|--------------------------|
                                                        
----------------------------|--------------------------|
----------------------------|--------------------------|
-----10-----10-----5-----5--|-----3-----3-----3-----3--|
----------------------------|--------------------------|
--8------8------3-----3-----|--1-----1-----1-----1-----|
----------------------------|--------------------------|
                            
--------------------------|
--------------------------|
--------------------------|
-----5-----5-----5--------|
--------------------1--3--|
--3-----3-----3-----------|

(FIM DA INTRO, VERSO 1.)
--------------------------------------------------x--x--x--x--|
--7--------x--x--x--x--7--------6--------8--------8--x--x--8--|
--7--------x--x--x--x--7--------7--------7--------7--x--x--7--|
-----------x--x--x--x-----------0--------5--------5--x--x--5--|
--5--------x--x--x--x--5-----------------5--------x--x--x--x--|
--------------------x-----------------------------------------|
                                  
--------------------------------------------------x--x--x--x--|
--7--------x--x--x--x--7--------6--------5--------5--x--x--5--|
--7--------x--x--x--x--7--------7--------7--------7--x--x--7--|
-----------x--x--x--x-----------0--------0--------0--x--x--0--|
--5--------x--x--x--x--5--------------------------x--x--x--x--|
--------------------x-----------------------------------------|

--------------------------------------------------x--x--x--x--|
--7--------x--x--x--x--7--------6--------8--------8--x--x--8--|
--7--------x--x--x--x--7--------7--------7--------7--x--x--7--|
-----------x--x--x--x-----------0--------5--------5--x--x--5--|
--5--------x--x--x--x--5-----------------5--------x--x--x--x--|
--------------------x-----------------------------------------|
                                                                
--------------------------------------------------x--x--x--x--||
--7--------x--x--x--x--7--------6--------5--------5--x--x--5--||
--7--------x--x--x--x--7--------7--------7--------7--x--x--7--||
-----------x--x--x--x-----------0--------0--------0--x--x--0--||
--5--------x--x--x--x--5--------------------------x--x--x--x--||
--------------------x-----------------------------------------||

(BRIDGE) 2x
--------------------------|--------------------------|
--------------------------|--------------------------|
-----7-----7-----7-----7--|-----7-----7-----7-----7--|
--------------------------|--------------------------|
--5-----5-----5-----5-----|--5-----5-----5-----5-----|
--------------------------|--------------------------|
                                                              
------------------------------|------------------------------|
------------------------------|------------------------------|
-----10-----10-----10-----10--|-----10-----10-----10-----10--|
------------------------------|------------------------------|
--8------8------8------8------|--8------8------8------8------|
------------------------------|------------------------------|
                                                                      
----------------------------------|----------------------------------|
----------------------------------|----------------------------------|
------12------12------12------12--|------12------12------12------12--|
----------------------------------|----------------------------------|
--10------10------10------10------|--10------10------10------10------|
----------------------------------|----------------------------------|
                                                                      
----------------------------------|----------------------------------|
----------------------------------|----------------------------------|
------15------15------15------15--|------17------17------17------17--|
----------------------------------|----------------------------------|
--13------13------13------13------|--15------15------15------15------|
----------------------------------|----------------------------------|

REFRÃO IGUAL A INTRODUÇÃO

Depois repete verso 1 e ponte só que na segunda vez, na parte "you hocked me" a primeira frase. 
PARA tudo.. depois volta... e na ponte antes do refrão.. para no acorde Ré.

REfrão igual a introdução....e a introdução pra terminar a música =P

E é isso aí..


LET'S DISCO!!!!!!! \o/
Composição de Daniel Gildenlöw
Colaboração e revisão:
  • Ariel Teixeira
1.461 exibições
    • ½ Tom
    • A
    • Bb
    • B
    • C
    • Db
    • D
    • Eb
    • E
    • F
    • F#
    • G
    • Ab
  • Adicionar à lista

    0 comentários

    Ver todos os comentários

    Conseguiu tocar?

    0 Tocaram 0 Ainda não

    Grave um vídeo tocando Disco Queen e nos envie!

    00:00 / 00:00
    outros vídeos desta música
    repetir qualidade Automático
    Outros vídeos desta música
    00:00 / 00:00
    Automático

    Cifra Club Pro

    Aproveite o Cifra Club com benefícios exclusivos e sem anúncios
    Cifra Club Pro
    Aproveite o Cifra Club com benefícios exclusivos e sem anúncios
    OK