Cifra Club

Whiskey Lullaby

Brad Paisley

Cifra: Principal (violão e guitarra)
exibições 11.642
Tom: D
(intro)

E|-----0h2-2-0---------0-0h2-2-0---0h2-0h3-3-3h5-5-5h3-----|
B|-0-0---------3-2-0-0------------3---------------------2--|
G|------------------------------------------------------2--|
D|------------------------------------------------------2--|
A|-2---------------2---------------------------------------|
E|---------------------------------------------------------|

(versos)
     D                G                 Bm              A
E|----------0-----------------3--------------------------
B|------3-----3-----------3-----3---------------3------2-
G|----2---2-----2-------0---0-----0---------4-----4----2-
D|--0-------------0-----------------0-----4---4-----4--2-
A|------------------------------------0h2----------------
E|------------------0h3----------------------------------

     D                G                A
E|----------0-----------------3-----------------------
B|------3-----3-----------3-----3-------------2-------
G|----2---2-----2-------0---0-----0-------2-----2-----
D|--0-------------0-----------------0---2---2-----2---
A|------------------------------------0-------------0-
E|------------------0h3-------------------------------

     Bm           A  D              Bm           A   D              A
E|--------------------------2-------------------------------2-----------------------
B|----------3----2------3-----3-------------3----2------3-----3-------------2-------
G|------4-----4--2----2---2-----2-------4-----4--2----2---2-----2-------2-----2-----
D|----4---4------2--0-------------0---4---4------2--0-------------0---2---2-----2---
A|--2-------------------------------2-------------------------------0-------------0-
E|----------------------------------------------------------------------------------

(refrão)
     D          G    A              Bm              G
E|----------3-----------------------------------------------3-------
B|------3-----3-------------2---------------3-----------3-----3-----
G|----2---2-------------2-----2---------4-----4-------0---0-----0---
D|--0-------------0---2---2-----2-----4---4-----4-----------------0-
A|------------------0-------------0-2-------------0-----------------
E|--------------3-----------------------------------3---------------

     D          G    A              Bm              G
E|----------3-----------------------------------------------3-------
B|------3-----3-------------2---------------3-----------3-----3-----
G|----2---2-------------2-----2---------4-----4-------0---0-----0---
D|--0-------------0---2---2-----2-----4---4-----4-----------------0-
A|------------------0-------------0-2-------------0-----------------
E|--------------3-----------------------------------3---------------

     D          G    A              Bm              G
E|----------3-----------------------------------------------3-------
B|------3-----3-------------2---------------3-----------3-----3-----
G|----2---2-------------2-----2---------4-----4-------0---0-----0---
D|--0-------------0---2---2-----2-----4---4-----4-----------------0-
A|------------------0-------------0-2-------------0-----------------
E|--------------3-----------------------------------3---------------

     D          G   A               G               Bm            A
E|----------3-------------------------------3------------------------
B|------3-----3-------------2-----------3-----3-------------3----2-0-
G|----2---2-------------2-----2-------0---0-----0-------4-----4--2---
D|--0-------------0---2---2-----2-----------------0---4---4------2---
A|------------------0-------------0-----------------2----------------
E|--------------3-------------------3--------------------------------

    Bm            A  G               G
E|-----------------0---------3---------------3-------]
B|----------3----2-------3-----3---------3-----3-----]
G|------4-----4--2-----0---0-----0-----0---0-----0---]
D|----4---4------2-----------------0---------------0-]
A|--2------------------------------------------------]
E|-------------------3---------------3---------------]

          D             G                             Bm
She put him out like the burning end of a midnight cigarette
    A         D        G                                 A
She broke his heart he spent his whole life trying to forget
   Bm                          A  D
We watched him drink his pain away a little at a time
      Bm                       A   D
But he never could get drunk enough to get her off his mind
        A
Until tonight...

(refrão 1)
            D                      G          A
He put that bottle to his head and pulled the trigger
    Bm                     A   G
And finally drank away her memory
D                           D4        A
Life is short but this time it was bigger
         Bm                        A        G
Than the strength he had to get up off his knees
     D                          D4        A
We found him with his face down in the pillow
       Bm                           A     G
With a note that said I'll love her til I die
     D                    D4         A
And when we buried him beneath the willow
    G                          Bm
The angel's sang a whiskey lullaby
Bm                                       G
La la la la la la la,  La la la la la la la
Bm                                       G
La la la la la la la,  La la la la la la la

           D          G                               Bm
The rumors flew but nobody knew how much she blamed herself
    A         D         G                                 A
For years and years she tried to hide the whiskey on her breath
   Bm                       A  D
She finally drank her pain away a little at a time
        Bm                       A  D
But she never could get drunk enough to get him off her mind
          A
Until the night...

(refrão 2)
             D                      G          A
She put that bottle to her head and pulled the trigger
    Bm                     A   G
And finally drank away his memory
D                           D4        A
Life is short but this time it was bigger
     Bm                         A        G
Than the strength she had to get up off her knees
    D                           D4        A
We found her with her face down in the pillow
Bm                       A        G
Clinging to his picture for dear life
    D                      D4         A
We laid her next to him beneath the willow
      G                          Bm
While angel's sang a whiskey lullaby
Bm                                       G   Bm  G
La la la la la la la,  La la la la la la la
Acordes para:
    Colaboração e revisão:
    • Sonic Hedgehog
    • xxx
    • renato bessa

    0 comentários

    mostrar mais comentários

    Conseguiu tocar?

    8 tocaram 0 ainda não

    Grave um vídeo tocando Whiskey Lullaby e mande pra gente!

    00:00 / 00:00
    outros vídeos desta música
    repetir qualidade Automático
    Outros vídeos desta música
    00:00 / 00:00
    Automático
    OK