Esperar É Caminhar

Palavrantiga

tom: D
[Intro] D  E  A  A7

E|----------------0----------------------------------|
B|--------------2---2----------------------0h2-0-----|
G|-7-6-4--4/2---------------7-6-4--4/2-----------2---|
D|---------------------------------------------------|
A|---------------------------------------------------|
E|---------------------------------------------------|

E|----------------0----------------------------------|
B|--------------2---2--------------------------------|
G|-7-6-4--4/2---------------7-6-4--2-----------------|
D|---------------------------------------------------|
A|---------------------------------------------------|
E|---------------------------------------------------|

A                            Bm
 Quando espero a chuva chegar
                  F#m
Tu vens com o teu vento
A                                Bm
 Quando espero tua voz estrondar
                 F#m
Tu vens com o silêncio

D     E        A  A7
 Eu espero  em Ti
D       E     A   A7
 Embora sem saber
D     E    F#m    E      D
 Como Tu dirás eu não sei
      E   A  E
Mas esperarei

A                            Bm
 Quando espero o mar se abrir
                          F#m
Vejo os meus pés sobre as águas
A                          Bm
 Quando espero o fogo arder
              F#m
Ouço a brisa suave

[Refrão]

D     E        A  A7
 Eu espero  em Ti
D       E     A   A7
 Embora sem saber
D     E    F#m    E      D
 Como Tu dirás eu não sei
   E       A
Mas esperarei

G            D  E          A
 Mesmo sem saber como Tu dirás
G          D       E4  E       A  
 Dentro de mim reinará a Tua paz
G              D
 Que me faz saber
    E
Esperar em ti
               D       
É sempre caminhar

[Final] Bm  A  D  Bm  A
        D  Bm  A  E/G#  E
Página 1 / 1

Letras e título
Acordes e artista

resetar configurações
OK