Notificações Amigos pendentes

      Pantera

      Underground In America

      462 exibições
      Tabbed By: Tycho (T*)
      
      intro 
      G|---------------------|
      D|-----------4---------|
      A|-----4--3-----2--0---|
      E|--2------------------|
      
      G|-----------------------------------|
      D|-----------4---------4-------------|
      A|-----4--3-----2--0------4--3--2--0-|
      E|--2--------------------------------|
      
      G|--------| 
      D|--4-----|  X4
      A|----4-3-|  
      E|--------|
      
      Back to top
      
      

      Comentários 0

      140 .
      140 cancelar

      conseguiu tocar?

      covers

      Grave um vídeo tocando Underground In America e mande pra gente!

      Ex.: http://www.youtube.com/watch?v=0IvSvIwGdwk
      ver covers de outras músicas »
      0:00 / 0:00

      Capítulos

        2 versões de baixo exibições contribuição e correção
        play/pausefechar subir/descer velocidade
        6ª corda E5ª corda A4ª corda D3ª corda G2ª corda B1ª corda E
          acordes
          publicidade
          fechar
          ok