Uplift

Pantera

Composição de: Pantera
tom: G
Riff 1:

E|----------------------------------------------------------|
B|----------------------------------------------------------|
G|----------------------------------------------------------|
D|----------------------------------------------------------|
A|----------------------------------------------------------|
E|-5p0-2p0-85-0-5p0-2p0-85-0-5p0-2p0-85-0-2p00-8p00-5p0-----|

Riff 2
E|---------------------------------------------------------|
B|---------------------------------------------------------|
G|---------------------------------------------------------|
D|---------------------------------------------------------|
A|---------------------------------------------------------|
E|-5p0-2p0-85-0-5p0-2p0-85-0-5p0-2p0-85-0-5p00-5p00-5p0----|

Riff 3
  uhhhhhhhh!
E|-----------------------|
B|-----------------------|
G|-----------------------|
D|-----------------------|
A|-73--------------------|
E|-51--------------------|

Riff 4
E|------------------------|
B|------------------------|
G|------------------------|
D|------------------------|
A|-5-4-3-xxxxx--5-6-7-----|
E|-3-2-1-xxxxx--3-4-5-----|

Refrão:

  UPLIFT!
E|-----------------------------|
B|-----------------------------|
G|-----------------------------|
D|-2-2-x-x---------------------|
A|-2-2-x-x-3/4-x-x-4/5-x-x-5/6-|
E|-0-0-x-x-1/2-x-x-2/3-x-x-3/4-|

E|-------------------------------|
B|-------------------------------|
G|-------------------------------|
D|-2-2-x-x-----------------------|
A|-2-2-x-x-3-4-5-6-7-8-9--10--11-|
E|-0-0-x-x-1-2-3-4-5-6-7---8---9-|
Página 1 / 1

Letras e título
Acordes e artista

resetar configurações
OK