Cifra Club

Aprenda

Tchubirabiron

Parangolé

Tab de baixo: Principal
G|-----------------------------------------|       
D|--------2--------------0-2---------------| (7x)
A|--0-0-4-------0-4--2-2-------------------|
E|----------2-2--------------0-0-0-0-2-4---|

G|-----------------------------------------|
D|--------2--------------0-2---2-2---------|    
A|--0-0-4-------0-4--2-2-------------------|
E|----------2-2----------------------------|

G|-----------------------------------------|
D|--------2--------------0-2---------------|   (4x)
A|--0-0-4-------0-4--2-2-------------------| 
E|----------2-2--------------0-0-0-0-2-4---|

G|---------------------------------|
D|--------------------------5-5-5-5|   (4x)
A|--5-5-5-5---------7-7-7-7--------|
E|----------7-7-7-7----------------|

G|-----------------------|
D|-----------------------|
A|--5-5-5-5---------7-7--|
E|----------7-7-7-7------|

G|-----------------------------------------|
D|--------2--------------0-2---------------|   (4x)
A|--0-0-4-------0-4--2-2-------------------|  
E|----------2-2--------------0-0-0-0-2-4---|

G|---------------------------------|
D|--------------------------5-5-5-5|   (4x)
A|--5-5-5-5---------7-7-7-7--------|
E|----------7-7-7-7----------------|

G|-----------------------|
D|-----------------------|
A|--5-5-5-5---------7-7--|
E|----------7-7-7-7------|
Composição de Leo Santana / Oscar Cardoso Ocampo
Colaboração e revisão:
  • Vitor Augusto
5.191 exibições

0 comentários

Mostrar mais comentários

Conseguiu tocar?

0 Tocaram 1 Ainda não

Grave um vídeo tocando Tchubirabiron e mande pra gente!

00:00 / 00:00
outros vídeos desta música
repetir qualidade Automático
Outros vídeos desta música
00:00 / 00:00
Automático

Cifra Club Pro

Aproveite o Cifra Club com benefícios exclusivos e sem anúncios
7 dias grátis
Cifra Club Pro
Aproveite o Cifra Club com benefícios exclusivos e sem anúncios
7 dias grátis
OK