Cifra Club

Anasasis Xenophontis Intro

Parkway Drive

Cifra: Principal (violão e guitarra)
Tom: A
. = palm mute

    (       Clean  2x      )  
C#|---13------------13--------------------------------------------------|
G#|------11------11----11-----------------------------------------------|
E |----------14---------------------------------------------------------|
B |---------------------------------------------------------------------|
F#|---------------------------------------------------------------------|
B |---------------------------------------------------------------------|

(   Distortion    )

1.
|---13------------13------------------------------------------------------|
|------11------11----11---------------------------------------------------|
|----------14-------------------------------------------------------------|
|------------------------0-0-0-0-0-0-0-0-0-0-0-0-0-0-0-0-0-0-0-0-0-0-0-0-0|
|------------------------0-0-0-0-0-0-0-0-0-0-0-0-0-0-0-0-0-0-0-0-0-0-0-0-0|
|------------------------0-0-0-0-0-0-0-0-0-0-0-0-0-0-0-0-0-0-0-0-0-0-0-0-0|
                         . . .   . . . . . . . .   . . . . . . . .   . . .

2.
|---13------------13------------------------------------------------------|
|------11------11----11---------------------------------------------------|
|----------14-------------------------------------------------------------|
|------------------------0-0-0-0-0-0-0-0-0-0-0-0-0-0-0-0-0-0-0-0-0-0-0-0--|
|------------------------0-0-0-0-0-0-0-0-0-0-0-0-0-0-0-0-0-0-0-0-0-0-0-0--|
|------------------------0-0-0-0-0-0-0-0-0-0-0-0-0-0-0-0-0-0-0-0-0-0-0-0--|
                         . . .   . . . . . . . .   . . .   . . .   . . .


1 and 2 alternate 2x

Please rate and let me know if you like it


exibições 221
Acordes para:

    0 comentários

    mostrar mais comentários

    Conseguiu tocar?

    0 tocaram 0 ainda não

    Grave um vídeo tocando Anasasis Xenophontis Intro e mande pra gente!

    00:00 / 00:00
    outros vídeos desta música
    repetir qualidade Automático
    Outros vídeos desta música
    00:00 / 00:00
    Automático
    OK