Cifra Club

Anasis Xenophontis

Parkway Drive

Cifra: Principal (violão e guitarra)
Tom: C
intro
------------------------------------------------------------------------|
----------10------------------------------------------------------------|
-10----10----10------------------------10----10-9----9------------------|
----14----------14------------------------14------10--------------------|
----------------------0-000-0-000-00---------------------0-000-0-000-00-|
----------------------0-000-0-000-00---------------------0-000-0-000-00-|

verse
--------------------------------------------------|
--------------------------------------------------|
--------------------------------------------------|
------------2-3-5-3-2-3---------------3-5-7-5-3-5-|
--------------------------------------------------|
-0000000000--------------00000000000--------------|

breakdown
------------------------------------|
------------------------------------|
------------------------------------|
-----7---5---2---0------------------|
-0-8---7---3---1--------3-5---0-----|
-0------------------3-7-----8-0-----|

------------------------------------|
------------------------------------|
------------------------------------|
------------------------------------|
-0-3-7-2-5-8-12----7-10-3-7-5-8-3-0-|
-0-3-7-2-5-8-12----7-10-3-7-5-8-3-0-|

outro
------------------------------------------------|
------------------------------------------------|
-10----10-12----9---------------10----10-9----9-|
----14-------10--------------------14------10---|
------------------------------------------------|
-------------------0000000000-------------------|

get the middle part of the song with the octaves on the other anasis song i have posted...beau
exibições 312
Acordes para:
    Composição: Parkway Drive

    0 comentários

    mostrar mais comentários

    Conseguiu tocar?

    0 tocaram 0 ainda não

    Grave um vídeo tocando Anasis Xenophontis e mande pra gente!

    00:00 / 00:00
    outros vídeos desta música
    repetir qualidade Automático
    Outros vídeos desta música
    00:00 / 00:00
    Automático
    OK