Cifra Club

Hopeless Soloflesh Bone And Weakness Intro

Parkway Drive

Tab de baixo: Principal

Hopless (Bass Solo):

F |-------------------------------------------------------------------|
C |-----7---10-8-7-8-----3---7-5-3-5-----3---5-3-2-3-----2---2-3-2----|
G |-5-5---5----------1-1---1-------------------------3-3---3-------3--|
C |----------------------------------3-3---3--------------------------|

Flesh, Bone And Weakness (Intro):

F |-----------------------------------------------------------|
C |--666--666--777--666--999--999--888--777---131313---131313-|
G |-4----4----5----4----7----7----6----5----11-------11-------|
C |-----------------------------------------------------------|

F |----------------------------------------------------------|
C |--111111--111111---141414---141414---131313---131313------|
G |-9-------9-------11-------11-------11-------11------------|
C |----------------------------------------------------------|

Please Rate
exibições 489

0 comentários

mostrar mais comentários

Conseguiu tocar?

0 tocaram 0 ainda não

Grave um vídeo tocando Hopeless Soloflesh Bone And Weakness Intro e mande pra gente!

00:00 / 00:00
outros vídeos desta música
repetir qualidade Automático
Outros vídeos desta música
00:00 / 00:00
Automático
OK