Romance Is Dead

Parkway Drive

Composição: Parkway Drive
Tom: A
sorry i have not got the complete tab
Intro
C#|----------------------------|------------------------------------------|
G#|----------------------------|------------------------------------------|
E |----------------------------|------------------------------------------|
B |-3~----3~--------3----------|--------------3~--3~--------3-------2-----|
F#|---7~----7~--3-5---5--------|-0-0-000-000----7~--7~--3-5---5-x-x---3-0-|
B |----------------------------|-0-0-000-000------------------------------|
   P.M                             . . ... ...

-----------------------------|-------------------------------------------|
-----------------------------|-------------------------------------------|
-----------------------------|-------------------------------------------|
--3~----3~--------3----------|---------------3~--3~--------3----999--777-|
----7~----7~--3-5---5--------|--0-0-000-000----7~--7~--3-5---5-----------|
-----------------------------|--0-0-000-000------------------------------|
P.M                             . . ... ...

Verse (Rythm Figure 1)
|-----------------------------|-------------------------------------------|
|-----------------------------|-------------------------------------------|
|-----------------------------|-------------------------------------------|
|--3~----3~--------3----------|---------------3~--3~--------3-------2-----|
|----7~----7~--3-5---5--------|--0-0-000-000----7~--7~--3-5---5-x-x---3-0-|
|-----------------------------|--0-0-000-000------------------------------|
 P.M                             . . ... ...

-----------------------------|-------------------------------------------|
-----------------------------|-------------------------------------------|
-----------------------------|-------------------------------------------|
--3~----3~--------3----------|---------------3~--3~--------3----999--777-|
----7~----7~--3-5---5--------|--0-0-000-000----7~--7~--3-5---5-----------|
-----------------------------|--0-0-000-000------------------------------|
P.M                             . . ... ...   x2

The part they play when winston sings "Cupid never felt his mark" comes next, don't know the tab though.
Then comes "as they await the insertion, of blades on blood", don't know that either, 
it does Rythym figure 1 again

(Rythm Figure 1)
|-----------------------------|-------------------------------------------|
|-----------------------------|-------------------------------------------|
|-----------------------------|-------------------------------------------|
|--3~----3~--------3----------|---------------3~--3~--------3-------2-----|
|----7~----7~--3-5---5--------|--0-0-000-000----7~--7~--3-5---5-x-x---3-0-|
|-----------------------------|--0-0-000-000------------------------------|
 P.M                             . . ... ...

-----------------------------|-------------------------------------------|
-----------------------------|-------------------------------------------|
-----------------------------|-------------------------------------------|
-3~----3~--------3-----------|---------------3~--3~--------3----999--777-|
----7~----7~--3-5---5--------|--0-0-000-000----7~--7~--3-5---5-----------|
-----------------------------|--0-0-000-000------------------------------|
P.M                             . . ... ...   x2


"she said I love you" comes next with another tab i don't know. Then comes "She said goodbye! Go!"

Breakdown
|------------------------------------------------------------| a little
|------------------------------------------------------------|riff that's
|------------------------------------------------------------|like the end of the first
|---------bar of the intro comes next the whole bar----------|
|--0-0-0-0-00-00--0-0-0-0-00-00--0-0-0-0-00-00---------------|
|--0-0-0-0-00-00--0-0-0-0-00-00--0-0-0-0-00-00---------------|
P.M. . . . .. ..  . . . . .. ..  . . . . .. .. repeats!

"So cry me a ***ing river, bitch!"

|------------------------------------------------------------------|
|------------------------------------------------------------------|
|------------------------------------------------------------------|
|------------------------------------------------------------------|      little riff 
and then repeat bar
|--00-00-0-0-00-00--00-00-0-0-00-00--00-00-0-0-00-00---------------|
|--00-00-0-0-00-00--00-00-0-0-00-00--00-00-0-0-00-00---------------|
P.M.. .. . . .. ..  .. .. . . .. ..  .. .. . . .. ..

"You wouldn't know love.." don't know this part. This part followed by the tapping solo. 
know that either.

Then "Will you ----------- bleed for me"

|-------------------------------------------------------|
|-------------------------------------------------------|
|------12-----------9-----------------------------------|
|--7~~----10-9--5~~---10-12--3~~-10-12-14--5~~-14-10-12-|           x4
|--7~~----------5~~----------3~~-----------5~~----------|tapping solo starts
|--7~~----------5~~----------3~~-----------5~~----------|again 3rd time through

|------------------------------------------------------|
|------------------------------------------------------|
|------12-----------9------------12-----------9--------|
|--7~~----10-9--5~~---10-12--7~~----10-9--5~~---10-12--|      Repeats til
|--7~~----------5~~----------7~~----------5~~----------|outro
|--7~~----------5~~----------7~~----------5~~----------|

Outro (Clean)
|------------15~~----------------------------------------|
|-----/17~~----------13~~--/15~~-------------------------|
|--------------------------------------------------------|
|--------------------------------------------------------| Repeats til fade
|--------------------------------------------------------|out
|--------------------------------------------------------|
Página 1 / 1

Letras e título
Acordes e artista

resetar configurações
OK